As It Seems

Lily Kershaw

Tom: C
Capotraste na 5ª casa
As It Seems by Lily Kershaw 

 

Picking: 

C                                       G 
|-------------------------|-------------------------| 
|--------1-----------1----|--------0-----------0----| 
|------0---0-------0---0--|------0---0-------0---0--| 
|-------------------------|-------------------------| 
|--3-----------3----------|-------------------------| 
|-------------------------|--3-----------3----------| 
   ^     ^     ^     ^       ^     ^     ^     ^     

G/D                                     Em 
|-------------------------|-------------------------| 
|--------0-----------0----|--------0-----------0----| 
|------0---0-------0---0--|------0---0-------0---0--|   repeat 
|--0-----------0----------|-------------------------| throughout  
|-------------------------|-------------------------| the entire 
|-------------------------|--0-----------0----------|    song 
   ^     ^     ^     ^       ^     ^     ^     ^     
C Well I knew G What I didn't want to know G/D And I saw Em Where I didn't want to go C G So I took the path less traveled on G/D And I'll let my stories be whispered Em C When I'm gone... G G/D When I'm gone Em C When I'm gone G G/D Em When I'm gone C G Well in this life you must find something to live for G/D Cause when the darkness comes a callin' Em C You'll go back to where you were before G Cause this life is as Fragile as a dream, and G/D Nothing's ever really Em C As it seems... G G/D As it seems Em C As it seems G G/D Em As it seems C G Well I lost my innocence when I let him dive G/D But the way that he looked at me Em C Made me feel alive G And now I know Nothin' at all G/D But the release that comes when you're Em C In mid fall... G G/D In mid fall Em C In mid fall G G/D Em In mid fall C G Well in this life you must find something to live for G/D Cause when the darkness comes a callin' Em C You'll go back to where you were before G Cause this life is as Fragile as a dream, and G/D Nothing's ever really Em C As it seems... G G/D As it seems Em C As it seems

Compartilhe esta música: novo

QR Code
Copiar