Tempo PerdidoCifra Verificada

Legião Urbana

Tom: C
Introdução:  C G4/B  Am  Bm  Em  D  C G4/B  Am  Bm Em  

A|--------14------14-------14-------14------10------10-------10------10-| 
E|-----15------15-------15-------15------12------12-------12------12----| 
C|--12------12-------12-------12-------9-------9--------9-------9-------| 
G|----------------------------------------------------------------------| 

A|--------12------12------12------12-| 
E|-----14------14------14------14----| 
C|--11------11------11------11-------| 
G|-----------------------------------| 
D C G4/B Am Todos os dias quando acordo, Bm Em Não tenho mais o tempo que passou D C G4/B Am Mas tenho muito tempo Bm Em D Temos todo o tempo do mundo. C G4/B Am Todos os dias antes de dormir, Bm Em D Lembro e esqueço como foi o dia: C G4/B Am 'Sempre em frente, Bm Em Não temos tempo a perder.' D C G4/B Am Nosso suor sagrado Bm É bem mais belo que esse Em sangue amargo D C G4/B Am E tão sério (Bm Em) E selva...gem. Selva...gem, selva...gem. C G4/B Am Bm Veja o sol dessa manhã tão cinza Em C A tempestade que chega é da cor G4/B Am dos teus olhos Bm Em casta.....nhos. D C G4/B Am Então me abraça forte e me Bm diz mais uma vez Em D C Am Que já estamos distantes de tudo Bm Em Temos nosso próprio tempo. Bm Em Temos nosso próprio tempo. Bm Em Temos nosso próprio tempo. D C G4/B Am Bm Não tenho medo do escuro, Em C Am mas deixe as luzes acesas Bm Em ago.....ra. D C G4/B Am7 O que foi escondido é o que se escondeu Bm E o que foi prometido, Em ninguém prometeu. D C G4/B Am Nem foi tempo perdido. Bm Em Somos tão jo.....vens. Bm Em tão jo.....vens. Bm Em tão jo.....vens.

Compartilhe esta música: novo

QR Code
Copiar