Pais e FilhosCifra Verificada

Legião Urbana

Tom: G
Riff Introdução: 

e|---------------------------------------| 
B|-1--3--5------5---13--10--12-------12\-| 
G|-0--0--0--0--------0---0---0---0----0\-| 
D|---------------------------------------| 
A|-0--2--3----3-----12--8---10----10-----| 
E|---------------------------------------| (4x) 

C D Estátuas e cofres G E paredes pintadas C Ninguém sabe o que D G aconteceu,hum... C D G Ela se jogou da janela do quinto andar C D G C D Nada é fácil de entender F C/E C dorme agora, Bm Am hum... D É só o vento lá fora C D Quero colo G Vou fugir de casa C D G Posso dormir aqui com você? C D Estou com medo G Tive um pesadelo C D G Só vou voltar depois C D das três F C/E C Meu filho vai ter Bm Am Nome de santo D Quero o nome mais bonito G C E preciso amar as pessoas Em Como se não houvesse C amanhã G C porque se você parar pra pensar Em C Na verdade não há D G Me diz porque que o C D G céu é azul C Me explica agrande fúria D G C D do mun...do G C D São meus filhos que tomam G G C D conta de mim C Eu moro com a minha mãe D G Mais meu pai vem me C D G visitar G C Eu moro na rua, D G não tenho ninguém C D G Eu moro em qualquer lugar C D Já morei em tanta casa que G C nem me lenbro mais D F Eu moro com meus pais C/E C Bm Am D uh, uh,uh,o o o... G C É preciso amar as pessoas, Em Como se não houvesse C amanhã G C Porque se você parar pra pensar Em C Na verdade não há G C Sou uma gota d´agua G C Sou um grão de areia G Você me diz que seus pais C não entendem Em Mas voce não entende seus pais D Você culpa seus pais G por tudo C D G E isso é um absurdo C D G São crianças como você C D O que você vai ser G Quando você crecer? (C D G) Uuu...uu...Aaa ê...
Riff Final: 

e|--------------------------------------------------12-10-----| 
B|-----13-------------15--------------12----------10-------10-| 
G|--------12-------------14--------12----------10-------------| 
D|-\14-------14--14\16------16--12---------10-----------------| 
A|------------------------------------------------------------| 
E|------------------------------------------------------------| 

Compartilhe esta música: novo

QR Code
Copiar