Whole Lotta Love

Led Zeppelin

Tom: D
 Intro    

-----------|------------|---------------------------------------    
-----------|----(6x)----|---------------------------------------    
-----------|------------|---------------------------------------    
-----------|-9----------|-9--9----------------------------------    
---5b---5b-|-7----------|-7--7----------------------------------    
-7----7----|-0--0--0--0-|-0--0----------------------------------    

        
-----------|------------|---------------------------------------    
-----------|----(6x)----|---------------------------------------    
-----------|------------|---------------------------------------    
-----------|-9----------|-9-------------------------------------    
---5b---5b-|-7----------|-7----5b---5b--------------------------    
-7----7----|-0--0--0--0-|-0--7----7-----------------------------  
D - E D - E D E D E You need coolin, baby, I`m not foolin`. D E D E I`m gonna say it, yeah, go back to schoolin`. D E D E Way down inside, honey, you need it, D E D E D E I`m gonna give you my love, I`m gonna give you my love. D E D E Wanna whole lotta love, wanna whole lotta love, D E D E wanna whole lotta love, wanna whole lotta love.
D E D E You`ve been learnin`, baby, I`ve been burning. D E D E All them good times, baby, I`ve been yearnin`. D E D E Way down inside, honey, you need it, D E D E I`m gonna give you my love, I`m gonna give you my love.
D-E REFRAIN + (drums passage, improvise on D-E ) + E x 6
D E D E You`ve been coolin`, baby, I`ve been droolin`. D E D E And them good times, I`ve been misusing. D E D E Way, down inside, I`m gonna give you my love, D E D E I`m gonna give you my love, I`m gonna give you my love, D E D E D E I`m gonna give you my love I`m gonna give you my love.
E ... D... E E... D... E E A + REFRAIN + Way down inside woman, you need ............... love. D E D E -D-E ...wanna whole lotta love...
Verso (2x)    
                                            
----------------------------------------------------------------    
----------------------------------------------------------------    
----------------------------------------------------------------    
-9--------9------9-9-------------9--------9--------9------------    
-7--------7------7-7----5b---5b--7--------7--------7----5b---5b-    
-0-0-0-0--0-0-0--0-0--7----7-----0-0-0-0--0-0-0-0--0--7----7----    

----------------------------------------------------------------    
----------------------------------------------------------------    
----------------------------------------------------------------    
-9--------9--------9---------------9--------9--------9----------    
-7--------7--------7------5b---5b--7--------7--------7---5b---5b    
-0-0-0-0--0-0-0-0--0-0--7----7-----0-0-0-0--0-0-0-0--0-7----7---    


Refrão - Guitarra 1 (4x)    

----------------------------------------------------------------    
----------------------------------------------------------------    
------------------------7--7--7--7--7--7------------------------    
--9--------9--------9---7--7--7--7--7--7------------------------    
--7--------7--------7---5--5--5--5--5--5------------------------    
--0-0-0-0--0-0-0-0--0-------------------------------------------    


Refrão - Guitarra 2 (4x)    

ABRIR O BOTAO DE VOLUME    
     
----------------------------------------------------------------    
----------------------------------------------------------------    
--10/---10/---10/---10/-----------------------------------------    
--10/---10/---10/---10/-----------------------------------------    
----------------------------------------------------------------    
----------------------------------------------------------------    


Solo    
                                                     
----------------12----------------------------------------------    
-------------12----15p12----------------------------------------    
-------14b16-------------15p14p12--14--12--14b16----------------    
-9--9-----------------------------------------------------------    
-7--7-----------------------------------------------------------    
-0--0-----------------------------------------------------------    

----------------------------------------------------------------    
-----3----------------------------------------------------------    
-2/4---4p2p0--4p2p0---------------------------------------------    
---------------------2p0---2p0----------------------------------    
-------------------------2-------2p0-2--------------------------    
----------------------------------------------------------------    

----------12--------------15------------------------------------    
-------12----15b17--15b17----15b17--17-20b24b20--17----20-17----    
-14b16----------------------------------------------18----------    
----------------------------------------------------------------    
----------------------------------------------------------------    
----------------------------------------------------------------    

----19b21--19-18-17----17---------------------------------19----    
-17-----------------20----20-17--17-19-19b21-21-21--21b22----17-    
----------------------------------------------------------------    
----------------------------------------------------------------    
----------------------------------------------------------------    
----------------------------------------------------------------    


parte especial3    

  E5       A5    

----------------------------------------------------------------    
----------------------------------------------------------------    
----------------------------------------------------------------    
--9-------------------------------------------------------------    
--7---7---------------------------------------------------------    
------5---------------------------------------------------------

Compartilhe esta música: novo

QR Code
Copiar