Don't Tell Me

Lakyn Heperi

Tom: Am
Intro:
     Gsus2                   Gsus2 
    |     |     |     |      |     |     |     | 
E-|---------------------3--|---------------------3---| 
B-|---------------------3--|---------------------3---| 
G-|---2---2p0-----0--------|---2---2p0-----0---------| 
D-|-----------0h2---2p0----|-----------0h2---2p0-----| 
A-|------------------------|-------------------------| 
E-|-3----------------------|-3-----------------------| 




I worry you don?t know what I know, I worry you don?t know it. 

  Gsus2/C                    Gsus2/C 
    |     |     |     |      |     |     |     | 
E-|---------------------3--|-------------------------| 
B-|---------------------3--|-------------------------| 
G-|---2---2p0-----0--------|---2---2p0---2--2--2p0--0| 
D-|-----------0h2---2p0----|-----------------------2-| 
A-|-3----------------------|-3-----------------------| 
E-|------------------------|-------------------------| 

This pattern repeats for all the verses 
You don?t know it. Verse: Come in the sun?s ?bout to rise, I?m here and I brought the fire, Been thinking when I outta die, I?m taking my whole damn life. Verse: My whole damn life.
Am C They can take all they want G Dsus4/F# But they can?t take my soul, and all I know. Am C They can judge all they want G Dsus4/F# But they can?t judge my mind, all in time.
Verse: So, let?s leave the sun?s going down now, Take a couple for the higher ground, She said I don?t know how to fly, Don?t worry neither do I but, Verse Where?s the harm in tryin?? Where?s the harm in tryin??
Am C They can take all they want G Dsus4/F# But they can?t take my soul, and all I know. Am C They can judge all they want G Dsus4/F# But they can?t judge my mind, all in time.
Bridge: Em G D And I?m fading away C Em All my thoughts are gone, G D C Em G D Strangers leave as friends, C C Badd11 or Em Oh how I thought I knew you
Am C They can take all they want G Dsus4/F# But they can?t take my soul, and all I know. Am C They can judge all they want G Dsus4/F# But they can?t judge my mind, all in time.
Bridge: Em G D And I?m fading away C Em All my thoughts are gone, G D C Em G D Strangers leave as friends, C C Badd11 or Em Oh how I thought I knew you
Outro: 

   Gsus2/C                  let ring 
    |     |     |     | 
e-|-------------------------|--3--| 
B-|-------------------------|--3--| 
G-|---2---2p0---2--2--2p0--0|-----| 
D-|-----------------------2-|-----| 
A-|-3-----------------------|-----| 
E-|-------------------------|-----| 

Compartilhe esta música: novo

QR Code
Copiar