Firestone Ft. Conrad Sewell

Kygo

Tom: G
G                    A                           Bm                      D 
E|--(3)----------------2--0---0----------2h5-2---------X---------------2------x-----------| 
B|---3--0--0--3--0--3-----2--(2)----------------5-3----3---------3---3---5-5--3-----------| 
G|---0--------------------2--(2)--2--------------------4--4--(4)---4----------2-----------| 
D|---0--------------------2---------------------------(4)---------------------0-----------| 
A|---2--------------------0----------------------------2----------------------------------| 
E|---3------------------------------------------------------------------------------------| 

               G                 A                      Bm                 D 
E|--0h2-0-----X------------0-2--0--0-------2h5-2-----------------------2--X---------2h5--2----2------| 
B|---------3--3--0---0-3-0------2-(2)--3-----------5-3~-3--3~-3~-3~--5----3~-3~---(3)-------5---(5)--| 
G|------------0-----------------2-(2)-------------------4-----------------2--------------------------| 
D|------------0-----------------2----------------------(4)----------------0--------------------------| 
A|------------2-----------------0-----------------------2--------------------------------------------| 
E|------------3--------------------------------------------------------------------------------------| 

Após pt.I, toca-se três vezes a pt.II. 


Intro: 

      Bm                  A                   G                     A          Bm 
E|--------------------------------------------------------------------2h5-2---------------------------| 
B|----3--3-3-3--3--(3)---2--2-2-2--2--(2)----3--3-3-3--3--3-(3)----2--------3--3--3-3-3--3--(3)-------| 
G|----4--4-4-4--4--(4)---2--2-2-2--2--(2)----0--0-0-0--0--0-(0)----2-----------4--4-4-4--4--(4)-------| 
D|----4------------------2-----------------------------------------2-----------4----------------------| 
A|----2------------------0-----------------------------------------0-----------2----------------------| 
E|-------------------------------------------3--------------------------------------------------------| 

        A                   G                   A 
E|-----------------------------------------------------| 
B|-----2--2-2-2--2--(2)----3--3-3-3--3--(3)----2~------| 
G|-----2--2-2-2--2--(2)----0--0-0-0--0--(0)----2~------| 
D|-----2---------------------------------------2~------| 
A|-----0---------------------------------------0~------| 
E|-------------------------3---------------------------|
Verso 1: Bm A I'm a flame shot of fire G A I'm the dark in need of light Bm A And when we touch you inspire G A Feel the change in me tonight Bm A So take me up take me higher G A There's a war not far from here Bm A We can die in desire G A Or we can burn in love tonight
G Our hearts alight A Firestones Bm And when they strike D We feel the love G Sparks will fly A They ignite our bones D And when they strike Bm We light up the world G Our hearts alight A Firestones Bm And when they strike D We feel the love G Sparks will fly A They ignite our bones D And when they strike Bm We light up the world
Pós-Refrão: Riff principal We light up the world Oh whoa World Oh Whoa Firestone Verso II: Bm I'm from X A You're from Y G A Perfect strangers in the night Bm A Here we are, come together G A To the world we'll testify
G Our hearts alight A Firestones Bm And when they strike D We feel the love G Sparks will fly A They ignite our bones D And when they strike Bm We light up the world G Our hearts alight A Firestones Bm And when they strike D We feel the love G Sparks will fly A They ignite our bones D And when they strike Bm We light up the world

Compartilhe esta música: novo

QR Code
Copiar