Firestone

Kygo

Tom: Bm
Main 'riff' - Start from the colons after playing through the first repetition. 

e|--------------|-|---------------------------------------------------------------| 
B|-7h10-7-------|-|--------------7---------7h10-7---------------7-----------------| 
G|--------7h9-7-|:|-7------7---7----9-9-----------9-7-----7---7---9-9-7-----------| 
D|--------------|:|---9--9---9----------7-------------9-9---9---------------------| 
A|--------------|-|---------------------------------------------------------------| 
E|--------------|-|---------------------------------------------------------------| 

e|----------------------------------------------------------------------------|-|-| 
B|-----------------------7---------7h10-7----------------7---------10-7---7---|-|-| 
G|-9h11-9-7-7------7---7----9-9-----------9-7-7--7-7-7-9----7-7--7------9---9-|:|-| 
D|------------9--9---9----------7---------------------------------------------|:|-| 
A|----------------------------------------------------------------------------|-|-| 
E|----------------------------------------------------------------------------|-|-| 
Intro Bm A G A (x4) verse 1 Bm A I'm a flame shot of fire G A I'm the dark in need of light Bm A And when we touch you inspire G A Feel the change in me tonight Bm A So take me up take me higher G A There's a wall not far from here Bm A We can die in desire G Or we can burn in love tonight Chorus(2x) G Our hearts alight A Firestones Bm And when they strike D We feel the love G Sparks will fly A They ignite our bones D And when they strike Bm We light up the world Post-Chorus 1 (Chorus chords) We light up the world Oh whoa World Oh Whoa Firestone verse 2 Bm I'm from X A You're from Y G A Perfect strangers in the night Bm A Here we are, come together G To the world we'll testify Chorus(2x) G Our hearts alight A Firestones Bm And when they strike D We feel the love G Sparks will fly A They ignite our bones D And when they strike Bm We light up the world Post-Chorus 2 We light up the world We light up the word Oh whoa World Oh Whoa Firestone

Compartilhe esta música: novo

QR Code
Copiar