Benjamin Och Jag

Kristian Anttila

Tom: C#
Intro: 

    C#                              G#                 Bbm 
e:--6---4------------4---------------6----4--------------------------------| 
B:----------6---4--------6--4--6------------------6----4----6---4---6------| 
G:-----------------------------------------------------------------------6-| 
D:-------------------------------------------------------------------------| 
A:-------------------------------------------------------------------------| 
E:-------------------------------------------------------------------------| 

   F#                                Bbm               G# 
e:--6---4------------4---------------6----4--------------------------------| 
B:----------6---4--------6--4--6-------------------6----4----6---4---6-----| 
G:-----------------------------------------------------------------------6-| 
D:-------------------------------------------------------------------------| 
A:-------------------------------------------------------------------------| 
E:-------------------------------------------------------------------------| 
C# Solen kysste blommorna G# Bbm Löven vinkade till nyponen C# G# Bbm och jag såg dig lägga glassplitter i gräset C# Vinden dansade med pollenfrön G# Bbm Bergsjön glittrade till svalorna F# Bbm G# C# och jag såg dig bilda pakt med myggorna, bilvraken och tistlarna (Introt igen) C# Flickorna kysste grodorna G# Bbm Grodorna kysste flickorna C# G# Bbm och du lärde mig vända ryggen till världen som vänt ryggen till C# Och svanar kläcktes ur ankungar G# Bbm Änderna simmade två och två F# Bbm G# C# Och jag blev rädd när du lade spiknubb på sandstranden, så jag sa: G# Bbm Du borde passa dig för herren och hans dom F# Bbm G# Du borde akta dig för hans vrede och hans ord C# G# Bbm F# Du sa: Kom ner till mig Gud, i mitt mörker finns plats för fler Bbm G# C# Följ med mig hem en våning ner F# Bbm G# Och meningen med livet var mest en känsla som kom och gick F# Bbm G# En vilsen liten fjäril i sin bur får flyga fritt F# C# Så du föreslog: med spik, skruv, hammare och trä bygger jag en kista för min kropp och min själ C# G# Bbm med plåt, krut, propeller, lite järn F# Bbm G# C# bygger jag en farkost för min slutliga avskedsfärd (Introt igen) Jag har mina skäl en avskedsfärd Jag har mina skäl så tack och hejdå!

Compartilhe esta música: novo

QR Code
Copiar