Human

Krewella

Tom: C
NO CAPO 
The only tab in the web, not the same as the original but close ! 

INTRO - BASED ON CHORDS: C D Em 
  C                    D                    Em           
e|--------------------|------2-------------|--------------------------| 
B|------1-------------|----3---3-----------|------------------------0-| 
G|----0---0-----------|--2-------2---------|------0--------0------0---| 
D|--2-------2---------|0-------------------|----2--------2------2-----| 
A|3-------------------|--------------------|--2--------2--------------| 
E|--------------------|--------------------|0-------------------------| 
  C                    D                    Em           
e|--------------------|------2-------------|--------------------------| 
B|------1-------------|----3---3-----------|------------------------0-| 
G|----0---0-----------|--2-------2---------|------0--------0------0---| 
D|--2-------2---------|0-------------------|----2--------2------2-----| 
A|3-------------------|--------------------|--2--------2--------------| 
E|--------------------|--------------------|0-------------------------| 

Then you can change to that: 
  C                    D                    Em          Em 
e|0-------------------|2-----2-------------|0-------------------------| 
B|1-----1-------------|3---3---3-----------|0-----------------------0-| 
G|0---0---0-----------|2-2-------2---------|0-----0--------0------0---| 
D|2-2-------2---------|0-------------------|2---2--------2------2-----| 
A|3-------------------|--------------------|2-2--------2--------------| 
E|--------------------|--------------------|0-------------------------| 
******************** C D Is anybody there? Em Does anybody care Em What I'm feeling? C D I wanna disappear Em So nobody can hear Em Me when I'm screamin' C D Em Em 'Cause I could use a hand sometimes C D Em Em Yeah, I could use a hand sometimes They say pain is an illusion This is just a bruise And you are just confused But I am only human I could use a hand sometimes I am only human 3x The night is bitter cold I wonder if you know That I'm sleepless Waitin' like a ghost When I need you the most I go unnoticed 'Cause I could use a hand sometimes Yeah, I could use a hand sometimes They say pain is an illusion This is just a bruise And you are just confused But I am only human I could use a hand sometimes I am only human 2x The weight of the world is pullin' me down (Where are you now, where are you now?) Every breath feels like I'm gonna drown (Where are you now, where are you now?) I'm the only one left alone on this Earth Singin' this song but can't find the words 'Cause I could use a hand sometimes Yeah, I could use a hand sometimes They say pain is an illusion This is just a bruise And you are just confused But I am only human I could use a hand sometimes I am only human

Compartilhe esta música: novo

QR Code
Copiar