Make Me Bad / In Between Days (Acoustic MTV)

Korn

Tom: A
Tuned Down One Half Whole Step (D G C F A D) 

(Intro Pt 1: Guitar 1) 
d ||----3--2--| 
A ||----------| 
F ||-4--------| 
C ||----------| 
G ||----------| 
D ||----------| 

(Clean) 

(Intro Pt 2:Guitars 1 and 2) 
d ||--------------------| 
A ||--------------------| 
F ||-5/4/5--4--5--------| 
C ||-5/4/5--4--5--------| 
G ||-3/2/3--2--3--------| 
D ||--------------------| 
(Note: / = Hammer On) 

(With Heavy Distortion) 

(Verse) 

(Guitar 1) 
d ||----3--2--| 
A ||----------| 
F ||-4--------| 
C ||----------| 
G ||----------| 
D ||----------| 

(Guitar 2) 
d ||---------------------||---------------------| 
A ||---------------------||---------------------| 
F ||---------------------||---------------------| 
C ||----------7----------||----------6----------| 
G ||----7--------5-------||----6--------4-------| 
D ||-5-----5--------5--5-||-4-----4--------4--4-| 

(Both Guitars Clean) 


(Chorus:Guitars 1 and 2) 

d ||----------------------------| 
A ||----------------------------| 
F ||----------------5--5--5--4--| 
C ||-2--2--2--3--2--5--5--5--4--| 
G ||-2--2--2--3--2--3--3--3--2--| 
D ||-0--0--0--1--0--------------| 

(Both With Heavy Distortion) 

The After Chorus Runs Thru The Second time a Guitar Break 
starts, and its using one chord..here it is.... 

d ||----| 
A ||----| 
F ||-5--| 
C ||-5--| 
G ||-3--| 
D ||----|  


-----------In Between Days--------- 

Intro:  riff 1: A E A D (2x) 
            riff 2: A D (4x)                                                            
            riff 3: Bm E (2x) 
            riff 4 e riff 2 (ao mesmo tempo): A D (4x) 


'Riff' 1: 
G|-2-2-2-2-2-1---------2-2-2-2-2-4-4/6-6-6-6-6--------| 
D|----------------2-2-2--------------------------------------| 

G|-2-2-2-2-2-1----2/7-7-7-7-2-2--2/7-7-7-7-2-2-1----| 
D|----------------2---------------------------------------2--| 


'Riff' 2: (é um A e um D  na verdade) 

B|-2-2-2-2-3-2-2-2-2-2-------------------------------------| 
G|--------------------------2-----------------------------------| 

'Riff 3': 
G|--9-9-9-7-6-7-4-4-2-4| 

'Riff 4': 
G|-4-6-4-6-4-6-9-7-4-6-4-6-4-6-2-2--| 
(A D) Yesterday I got so old I felt like I could die Yesterday I got so old It made me want to cry (A D) Go on go on Just walk away Go on go on Your choice is made Go on go on And disappear Go on go on Away from here (Bm E) Riff 3 And I know I was wrong When I said it was true That it couldn't be me and be her A D Riff 4 e Riff 2 Inbetween without you A D Without you (A D) Yesterday I got so scared I shivered like a child Yesterday away from you It froze me deep inside (A D) Come back come back Don't walk away Come back come back Come back today Come back come back Why can't you see? Come back come back Come back to me (Bm E) Riff 3 And I know I was wrong When I said it was true That it couldn't be me and be her A D Riff 4 e Riff 2 Inbetween without you A D Without you VELHO (BANDA VM's)

Compartilhe esta música: novo

QR Code
Copiar