Falling Away From Me

Korn

Tom: D5
E|-------13-12-------12|-------13-12--------12-| 
B|----15-----13---10---|----15------13---10--12| 
G|---------------------|-----------------------| 
D|---------------------|-----------------------| 
A|---------------------|-----------------------| 
E|---------------------|-----------------------| 
 repetir o solo (intro) 2x... 

Riff inicial 4x 
E|---------|--------- 
B|-8-------|--------- 
G|-8-------|--------- Riff composto por D5 e A5 
D|-5--8-8--|--------- Para cada umas das 4 repetições do riff  
A|----8-8--|--------- deve paletar D5 uma vez e A5 duas vezes 
E|----5-5--|---------
continuar o solo (intro) durante a música exceto no Refrão Hey im fellin tired... ...falling away from me Repetir - Riff inicial (antes do Refrão) (o máximo de precisão no tempo das paletadas) Refrão(4x) A5 E5* C5 Beating me down B5 A5 E5* C5 beating me beating me down down B5 A5 Into the ground E5* C5 Screamings of sound B5 A5 E5* C5 beating me beating me down down B5 A5 Into the ground (Ouvir a música tentando acompanhar com a cifra, melhora a performace gradativamente)

Compartilhe esta música: novo

QR Code
Copiar