Encantum (part. Pedrosa)

Koda

Tom: C
Intro C7M Em G

Tab - Intro 

Parte 1 de 3 

E|-0----------------0------------------0h3--| 
B|-3-------------3----3-0--------------0----| 
G|----0--0----0-------4---2--0--2-----------| 
D|-2-------2----------0---------0--5--------| 
A|------------------------------------------| 
E|------------------------------------------|
Parte 2 de 3 
Gm11               C4/G 
E|-0-----------0--------0h3-----------------| 
B|-3----------3----3--0---------------------| 
G|---0--0---0------4----2--0--2-------------| 
D|-2------2--------0----------0-------------| 
A|------------------------------------------| 
E|------------------------------------------|
Parte 3 de 3 
E|------------------------------------------| 
B|------------------------0h3---------------| 
G|---0------0-------------------------------| 
D|-5---4--2---4-2---0---0-0h2---------------| 
A|-----3----------2---2---------------------| 
E|------------------------------------------|
C7M Me chamou com o seu sorriso angelical Em G Me falou que não tinha nada de mal C7M Eu acreditei, não sei onde estou Em G Eu só o segui, quero sair daqui C7M Em Me perdi, a magia era tão legal G C7M Agora sinto tanto medo Em Eu grito, eu grito, ninguém tá me ouvindo G C7M Só ouço a voz me chamar ( C7M Em G) Me chamar, não vou seguir E4/B Am Tenho medo, ouço o sino (Bate, bate, bate, bate o sino) (Bate, bate, bate, bate o sino, bate, bate) C5 E seu canto se torna mais lúdico E5 G5 C5 E teu passo ecoará medo dos teus E5 G5 Pequenos que apagarão no breu, no breu C5 E seu canto se torna mais lúdico E5 G5 C5 E teu passo ecoará medo dos teus E5 G5 Pequenos que apagarão no breu, no breu ( C7M Em G ) C7M Bate meia noite, bate Traz contigo tua cartola Em Fazes graça com tua arte G Meia noite é sua hora C7M Bate na sua porta, bate Deixe entrar quem está lá fora Em Cartas dele fazem parte G Puxa o coelho da cartola C7M Ilusões, sempre seu charme Puxa atenção de quem olha Em Hipnotiza quem abre G As crianças leva embora C7M As devora sem que fale Choram almas de quem sobra Em Mas só as que têm maldade G Almas boas contam histórias (Bate, bate o sino, bate, bate, bate Bate o sino, bate, bate, bate Bate o sino, bate, bate, bate Bate o sino, bate, bate, bate Bate o sino, bate, bate, bate Bate o sino, bate, bate, bate Bate o sino, bate, bate, bate) C5 E seu canto se torna mais lúdico E5 G5 C5 E teu passo ecoará medo dos teus E5 G5 Pequenos que apagarão no breu, no breu C5 E seu canto se torna mais lúdico E5 G5 C5 E teu passo ecoará medo dos teus E5 G5 Pequenos que apagarão no breu, no breu

Compartilhe esta música: novo

QR Code
Copiar