Te Agradeço

Kleber Lucas

Tom: F
Intro: F/A  Bb9  F  C7  Dm7  C4  F/A  Bb9 

F                 C4 
 Eu Te agradeço, Deus 
                   Dm7             Bb9 
Por se lembrar de mim e pelo Teu favor 
                    F 
E o que me faz crescer 
              C4 
Eu vivo pela fé, e não vacilo 
Dm7 
 Eu não paro, eu não desisto 
Bb9 
 Eu sou de Deus, eu sou de Cristo 

Solo: 
E|-------------------------------6-6-6-5----| 
B|-6-5-6--6-6-6-5-6-8-6-5-6-5-6---------6---| 
G|------------------------------------------| 
D|------------------------------------------| 
A|------------------------------------------| 
E|------------------------------------------| 

E|------------------------------------------| 
B|-6-5-6--6-5-6-8-6-5-6-5-6-----------------| 
G|--------------------------8888888888------| 
D|------------------------------------------| 
A|------------------------------------------| 
E|------------------------------------------|
F C4 Eu Te agradeço, Deus Dm7 Bb9 Por se lembrar de mim e pelo Teu favor F E o que me faz crescer C4 Eu vivo pela fé, e não vacilo Dm7 Eu não paro, eu não desisto Bb9 Eu sou de Deus, eu sou de Cristo F C4 Você mudou a minha história Dm7 Bb9 E fez o que ninguém podia imaginar F C4 Você acreditou e isso é tudo Dm7 Só vivo pra você Bb9 Não sou do mundo, não
F C4 Dm7 A honra, a glória, a força Bb9 O louvor a Deus F C4 Dm7 E o levantar das minhas mãos Bb9 F É pra dizer que Te pertenço, Deus
F C4 Eu Te agradeço, Deus Dm7 Que no deserto Bb9 Não me deixou morrer e nem desanimar F C4 Dm7 E como aquela mãe que não desiste Bb9 Você não se esqueceu, Você insiste F C4 Você mudou a minha história Dm7 Bb9 E fez o que ninguém podia imaginar F C4 Você acreditou e isso é tudo Dm7 Só vivo pra você Bb9 Não sou do mundo, não
F C4 Dm7 A honra, a glória, a força Bb9 O louvor a Deus F C4 Dm7 E o levantar das minhas mãos Bb9 F É pra dizer que Te pertenço, Deus
Riff com vocal:
E|------------------------------------------------| 
B|------------------------------------------------| 
G|-7/10~------10-10/12~----12/15-14~-12-12/14-10~-| 
D|-------10------------10-------------------------| 
A|------------------------------------------------| 
E|------------------------------------------------|
F C4 Você mudou a minha história Dm7 Bb9 E fez o que ninguém podia imaginar F C4 Você acreditou e isso é tudo Dm7 Só vivo pra você Bb9 Não sou do mundo, não
F C4 Dm7 A honra, a glória, a força Bb9 O louvor a Deus F C4 Dm7 E o levantar das minhas mãos Bb9 F É pra dizer que Te pertenço, Deus (2x)
Final: F C4 Dm7 Bb9

Compartilhe esta música: novo

QR Code
Copiar