Kill You

Kicking Harold

Tom: F
Intro/Chorus
 
    F            Ab   Eb                  F            Ab     Bb  
e|-------------------|-----------------|-------------------|--------------------| 
B|-------------------|-----------------|-------------------|--------------------| 
G|--5----5-5-5-------|--3--3-3-3-------|--5----5-5-5-------|--10---10-10-10-----| 
D|--3----3-3-3-------|--1--1-1-1----1--|--3----3-3-3-------|--8----8--8--8------| 
A|--3----3-3-3-------|--1--1-1-1----1--|--3----3-3-3-------|--8----8--8--8------| 
D|--3----3-3-3----6--|--1--1-1-1----1--|--3----3-3-3----6--|--8----8--8--8------| x2 
Verse Bb Somewhere I lost touch with you You disappeared without a clue Pre Chorus F G Eb And I just want to talk F G Eb Bb And I just want to talk to youâ...to you
F Ab Eb F Ab Bb Would it kill you if I told you I love you F Ab Eb F Ab Bb Would it kill you if I told you I care I care
Verse Bb Crashing through a wall of fear Cause this old brick has new ears Pre Chorus F G Eb And I just want to talk F G Eb Bb And I just want to talk to youâ...to you
F Ab Eb F Ab Bb Would it kill you if I told you I love you F Ab Eb F Ab Bb Would it kill you if I told you I care F Ab Eb F Ab Bb Would it kill you if I told you I love you Eb Would you drop dead or would you fall for me
Guitar solo
 
  C              Ab            F              Bb 
e|--------------|-------------|--------------|---------------| 
B|--------------|-------------|--------------|---------------| 
G|-------8-7----|--8-7--5--3--|--5----8-7----|--8-7-8--10----| 
D|--------------|-------------|--------------|---------------| 
A|--------------|-------------|--------------|---------------| 
D|--------------|-------------|--------------|---------------| 

  C              Ab            F              Bb                   C (interlude) 
e|--------------|-------------|--------------|--------------------|--------------| 
B|--------------|-----11-13---|--------------|-----------11----11-|--13----------| 
G|--12----------|--12---------|-8-7-8-10-8-10|--12 10 12----12----|--------------| 
D|--------------|-------------|--------------|--------------------|--------------| 
A|--------------|-------------|--------------|--------------------|--------------| 
D|--------------|-------------|--------------|--------------------|--------------| 
Interlude C Ab F Somewhere I lost touch with you Bb I just want to talk to you C Ab Bb Somewhere I lost touch with youâ...you
F Ab Eb F Ab Bb Would it kill you if I told you I love you F Ab Eb F Ab Bb Would it kill you if I told you I care F Ab Eb F Ab Bb Would it kill you if I told you I love you F Ab Eb F Ab Bb Would it kill you if I told you that I’m scared
Outro Bb Fall for me x 4

Compartilhe esta música: novo

QR Code
Copiar