Love Me Like You Mean It

Kelsea Ballerini

Tom: D
Capotraste na 2ª casa

Opening Riff (and parts used throughout song) 
|----------------------------------------------------------------| 
|----------------------------------------------------------------| 
|-------------------------------2--------------------------------| 
|-4-2-4-2-4-2---0---4-2-4-2-4-2---4--4-2-4-2-4-2---0---4-2-4-2-0-| 
|-------------4----------------------------------4---------------| 
|----------------------------------------------------------------| 
Opening Chords: D-A-Em-G D-A-Em-G verse 1 D A Oh Hey, Boy with your hat back Em Mmm, I kinda like that G D If you wanna walk my way A Imma shoot ya straight up Em Show me what you’re made of G D I don’t have time to waist on the boys A That are playin’ the games Em G And leaving the girls cryin’ out in the rain D A Em So, tell me baby, do you got what it takes Chorus 1 D A If you’re gonna hold me, hold me like I’m leaving Em G If you’re gonna kiss me, kiss me like you need it D A Baby, if you’re not your best, get to leaving Em G If you’re gonna love me, love me like you mean it D A If you’re gonna talk the talk, you better walk it Em G If you wanna keep me, keep me like you lost it D A If you’re gonna say, you make me believe it Em If you’re gonna love me boy, G Love me like you mean it D-A-Em-G verse 2 D A Em Oh hey, I’ve had my share of losers, liars and users G D Looking for a heart to break A Em So, if you’re like that, well take a step back D ‘cause I don’t have time to waist on boys A That are playin’ the games Em G And leaving the girls cryin’ out in the rain D A So, tell me baby, are you just crazy Em Or crazy over me Chorus 2 D A If you’re gonna hold me, hold me like I’m leaving Em G If you’re gonna kiss me, kiss me like you need it D A Baby, if you’re not your best, get to leaving Em G If you’re gonna love me, love me like you mean it D A If you’re gonna talk the talk, you better walk it Em G If you wanna keep me, keep me like you lost it D A If you’re gonna say, you make me believe it Em If you’re gonna love me boy, G D A Em G Love me like you mean it, yeah, yeah D A Em G If you're gonna love me love me love me Chorus 3 D A If you’re gonna hold me, hold me like I’m leaving Em G If you’re gonna kiss me, kiss me like you need it D A Baby, if you’re not your best, get to leaving Em G If you’re gonna love me, love me love me D A If you’re gonna talk the talk, you better walk it Em G If you wanna keep me, keep me like you lost it D A If you’re gonna say, you make me believe it Em If you’re gonna love me boy, G D A Em Love me like you mean it, yeah, yeah, G D A Em G Love me like you mean it.... D A Em If you're gonna love me love me love me G Love me like you mean it.
Outro Riff 
|----------------------------------------------| 
|----------------------------------------------| 
|-------------2--------------------------------| 
|-4-2-4-2-4-2---4--4-2-4-2-4-2---0---4-2-4-2-0-| 
|------------------------------4---------------| 
|----------------------------------------------| 
Outro Chords:  D-A-Em-G  D-A-Em-G

Compartilhe esta música: novo

QR Code
Copiar