La Buchona

Julion Alvarez

Tom: G
G 
Cuando te traigo la banda, 
y retumbe en tu ventana 
                  D 
chiquitita sal pa' fuera 
                  G 
que te traigo serenata, 
                C 
ando bien amanecido 
                   G 
vengo con toda labiada 

G 
Ayer pase por tu casa, 
mire una troca parkiada 
                    D 
vi salir tu pretendiente 
                     G 
le pegue una corretiada 
                       C 
cerrojie el cuerno de chivo 
                     G 
ni el polvo se le miraba 

G7                   C 
Te gusta andar a la moda, 
         D            G 
los corridos, las pistolas 
te gusta andar en blindadas 
                    D 
presumes ser de la bola, 
                 C 
pero tu linda carita 
   D             G 
no parece ser buchona. 


INTERMEDIO 

G 
Entre suspiro y suspiro, 
mi corazón da latidos 
                D 
se acelara la coraza, 
                    G 
me siento bien livianito 
                    C 
no pienses mal chiquitita, 
       D             G 
mejor ven dame un besito. 

G 
Sabes que te tiro el lazo, 
pero tu no me haces caso, 
                  D 
mejor dejate de cosas 
               G 
y vamonos arreglando, 
                      C 
sabiendo que yo te quiero 
      D           G 
mete bien a la cranado 


G7                   C 
Te gusta andar a la moda, 
         D            G 
los corridos, las pistolas 
te gusta andar en blindadas 
                    D 
presumes ser de la bola, 
                 C 
pero tu linda carita 
   D             G 
no parece ser buchona. 


TRANSPORTACIONES 

DE G a D 
EN LA CUERDA 3RA DE ARRIBA ACIA ABAJO 

e--------------------------------- 
B--------------------------------- 
G--------------------------------- 
D-5---4---2----------------------- 
A-------------5------------------- 
E -------------------------------- 


DE D a G 
EN LA CUERDA 3RA DE ARRIBA ACIA ABAJO 

e--------------------------------- 
B--------------------------------- 
G--------------------------------- 
D-0---2---4----5------------------
A--------------------------------- 
E --------------------------------

DE G o D a C 
EN LA CUERDA 1RA DE ARRIBA ACIA ABAJO 

e--------------------------------- 
B--------------------------------- 
G--------------------------------- 
D--------------------------------- 
A-----0---2---3------------------- 
E--3------------------------------ 


DE C a D 
EN LA CUERDA 3RA DE ARRIBA ACIA ABAJO 

e---------------------------------
B--------------------------------- 
G--------------------------------- 
D--------------------------------- 
A--3---4---5----------------------
E---------------------------------

Compartilhe esta música: novo

QR Code
Copiar