Corazón Mágico

Julion Alvarez

Tom: C
Tuba 
G||-----------------------------------|| 
D||-----------------------------------|| 
A||--4/5---------------0000-2222-(3)--|| 
E||------0-5-4-3--3333----------------|| Con el (3) comienza el rasgueo en Do. 

Acordeón 

     C        D               G G7      C  D  G 
e||--0-2-2/3--0-2-2/3-2-0--------|| 
B||--1-3-3/5--1-3-3/5-3-1-0-1-3--|| 
G||-----------------------0-2-4--|| 
D||------------------------------|| x2 

          D        C      D         C  D         G 
e||--2-3-2-2-5-2-1-0--2-3-2-2-5-2-1-0---------------|| 
B||--3-5-3-3-7-3-2-1--3-5-3-3-7-3-2-1--0-1-4-4-3-0--|| 
G||------------------------------------0-2-5-5-4-0--|| 
D||-------------------------------------------------|| 
G D He visto entre los arboles tu pelo Em que jugaba con el viento C de pronto un sentimiento G Am se apodera de mi mente y eres tu D G el sol se a levantado por menguante B7 Em y el mar te esta mirando desde el sol G D te miro y de repente el horizonte G G7 es tan distante como tu C D G G7 Corazon que le has hecho a mi corazon C D G corazon luna llena cancion de amor D C D la vida siempre a sido asi tu por tu lado C D G y yo por ti corazon magico. Intro de acordeón Se repite todo

Compartilhe esta música: novo

QR Code
Copiar