Tudo É Teu

Josias Silva

Tom: G
Intro: G  F#  B 

Riff: 

E|-----------------------------| 
B|-10--8--7--8--7h8/10--10/12--| 
G|-7--7---7--7--7-------x------| 
D|-----------------------------| 
A|-----------------------------| 
E|-----------------------------| 

E|-----------------------------| 
B|---10--8--7--8----7b---------| 
G|---7--7--7--7------7b~~------| 
D|-----------------------------| 
A|-----------------------------| 
E|-----------------------------| 
G De todo lugar perdidos virão Em uma só voz Livres vamos cantar Levaste a cruz, Morreste e vivo estás Meu Deus, meu tudo sempre te darei (riff - todo o verso) G Mandaste Jesus do céu até nós A todos livrou Sempre se ouvirá Busquei a verdade G Em E a Ti eu encontrei Em C Meu Deus, meu tudo sempre Te darei G D Jesus, por Ti eu viverei Em C Nunca me envergonharei ô ô ô !! G D Meu ser e todo meu louvor Em Teu, Teu, tudo é Teu!! C Teu, Teu, tudo é Teu!! (Riff) G Mandaste Jesus do céu até nós A todos livrou Sempre se ouvirá Busquei a verdade G D Jesus, por Ti eu viverei Em C Nunca me envergonharei ô ô ô !! G D Meu ser e todo meu louvor Em Teu, Teu, tudo é Teu!! C Teu, Teu, tudo é Teu!! Solo:
E|-----3----5----7-------------| 
B|-----6b---8b---10b~~---------| 
G|-----------------------------| 
D|-----------------------------| 
A|-----------------------------| 
E|-----------------------------|
Am Em D C Busco a Ti e agora posso ver Am Em D Seguirei a Tua luz Am Em D C G Pois em Tuas mãos está Senhor a salvação.!! (2x) G D Jesus, por Ti eu viverei Em C Nunca me envergonharei ô ô ô !! G D Meu ser e todo meu louvor Em Teu, Teu, tudo é Teu!! C Teu, Teu, tudo é Teu!! (2x)

Compartilhe esta música: novo

QR Code
Copiar