Um Dia Te Levo Comigo

Jorge e Mateus

Tom: Em
Intro: Em  D/F#  C  Am  B7  Em  C  D  

 
E|--7/8\7--8-7-8-7-8-7--7/8\7--8-7-8-7-8-10-12-10-12-10-12-10----12-10-12-10-12-8-8/10-8-8-|  
B|-----------------------------------------------------------------------------------------|  
G|-----------------------------------------------------------------------------------------|  
D|-----------------------------------------------------------------------------------------|  
A|-----------------------------------------------------------------------------------------|  
E|-----------------------------------------------------------------------------------------|  



E|-8-8-8-10-8-7-------------10-8-7-8-7--7----------(12)--------------------(7)-----0---2---|  
B|------------------------------------10-10-8-10-8-7------(12)-------------(7)-----1---3---|  
G|--------------------------------------------------9------------(12)------(7)-----0---2---|  
D|-------------------------------------------------------------------------(7)-----2---0---|  
A|-------------------------------------------------------------------------(7)-----3---x---|  
E|---------------------------------------------------------------------------------x---x---|
Em D Não da pra esquecer teus olhos nem todos os beijos que você me dá, C G D Não da pra esquecer o cheiro e o ouro do cabelo a me iluminar, Bm C A vida passa tão sem graça mas quando voce tá perto fica tudo bem, Em D G D Eu corro a 200/hra mais se é pra te ver mais cedo, eu posso ir bem mais além, G D/F# Em C Sofro e morro todo dia vivendo essa agunia que me tira a paz, G A C D G D Um dia te levo comigo e de saudades suas eu nao choro mais, G D/F# Em C Quem tem amor assim de instante não tem o bastante pra sobreviver, G A C D G Pra todo mal da minha vida pra curar qualquer ferida meu remédio é você. (intro) Em D C B7 Em D Não da pra esquecer teus olhos nem todos os beijos que você me dá, C G D Não da pra esquecer o cheiro e o ouro do cabelo a me iluminar, Bm C A vida passa tão sem graça mas quando voce tá perto fica tudo bem, Em D G D Eu corro a 200/hra mais se é pra te ver mais cedo, eu posso ir bem mais além, G D/F# Em C Sofro e morro todo dia vivendo essa agunia que me tira a paz, G A C D G D Um dia te levo comigo e de saudades suas eu nao choro mais, G D/F# Em C Quem tem amor assim de instante não tem o bastante pra sobreviver, G A C D G Pra todo mal da minha vida pra curar qualquer ferida meu remédio é você.

Compartilhe esta música: novo

QR Code
Copiar