ParadigmasCifra Verificada

Jorge e Mateus

Tom: Db
Capotraste na 1ª casa
   

Intro: C  G  Dm7  F   

 
E|------------------------------------------|   
B|------------------------------------------|   
G|-7h9--7h9p7\5-----5-----------------------|   
D|--------------7p5-------------------------|   
A|------------------------------------------|   
E|------------------------------------------|

Verso 1:

C G Gostei de você antes de beijar Dm7 Depois que beijei F Comecei amar C G O som da sua voz é canção de ninar Dm7 F Se eu tô no seu colo o mundo pode acabar

Pré-Refrão

Dm7 Am Logo eu que achava que não existia C G Amor da vida você vem quebrando paradigmas Dm7 Am Arrumando o bagunçado C Bagunçando o arrumado G Agora que eu apaixonei se vira
C G Sabe eu? Dm7 Sou seu F Coração bate fora da casinha C G Sabe eu? Dm7 Sou seu F Eu piro no seu jeito caladinha C G Fala nada só me ama Dm7 Só me ama fala nada F Me ganhou na calada C G Fala nada só me ama Dm7 Só me ama fala nada F Me ganhou na calada
( C G Dm7 F ) ( C G Dm7 F ) C G Gostei de você antes de beijar Dm7 Depois que beijei F Comecei amar C G O som da sua voz é canção de ninar Dm7 F Se eu tô no seu colo o mundo pode acabar

Pré-Refrão

Dm7 Am Logo eu que achava que não existia C G Amor da vida você vem quebrando paradigmas Dm7 Am Arrumando o bagunçado C Bagunçando o arrumado G Agora que eu apaixonei se vira
C G Sabe eu? Dm7 Sou seu F Coração bate fora da casinha C G Sabe eu? Dm7 Sou seu F Eu piro no seu jeito caladinha
C G Sabe eu? Dm7 Sou seu F Coração bate fora da casinha C G Sabe eu? Dm7 Sou seu F Eu piro no seu jeito caladinha C G Sabe eu? Dm7 Sou seu F Coração bate fora da casinha C G Sabe eu? Dm7 Sou seu F Eu piro no seu jeito caladinha C G Fala nada só me ama Dm7 Só me ama fala nada F Me ganhou na calada C G Fala nada só me ama Dm7 Só me ama fala nada F Me ganhou na calada
Final: C G Dm7 F
E|------------------------------------------|   
B|------------------------------------------|   
G|-7h9--7h9p7\5-----5-----------------------|   
D|--------------7p5-------------------------|   
A|------------------------------------------|   
E|------------------------------------------|

Compartilhe esta música: novo

QR Code
Copiar