Louca De SaudadeCifra Verificada

Jorge e Mateus

Tom: C
Intro:  C  Em   F  Fm  (2x)  

 
                        C                  Em 
e|----------------------------------------------------------| 
B|----------------------------------------------------------| 
G|--5--5--5--7--7--7/9--9--9/10--9--9--7--7-----------------| 
D|----------------------------------------------------------| 
A|----------------------------------------------------------| 
E|----------------------------------------------------------| 


            F                       Fm           C      Em 
e|----------------------------------------------------------| 
B|------5---5h6--5-5-----------8-8-8/9-8-6----------8-------|   
G|-5-5----5-----------7-7--5----------------5--7/9-----9\7--| 
D|----------------------------------------------------------| 
A|----------------------------------------------------------| 
E|----------------------------------------------------------| 

                 F         Fm 
e|----------------------------------------------------------| 
B|------------5---------------------------------------------| 
G|-5----5/7------5--7----5----------------------------------|   
D|---7----------------7----6--------------------------------| 
A|----------------------------------------------------------| 
E|----------------------------------------------------------|
F G Se uma canção me lembrar F C Troque o CD, não ouça mais F G Se um perfume me recordar F C Troque de marca não use mais F C Já que me trocou por um outro alguém F G Substituir, é o que te convém
C Em Mas quando o coração não me enxergar F Fm Vai te deixar louca de saudade, louca de saudade C Em O coração vai me desejar F Fm E te deixa louca de saudade, louca de da saudade Dm G C Em F Fm Eu quero ver então se vai poder trocar de coração
F G Se algum lugar me lembrar F C Troque de rota, não passe lá F G Se um filme me recordar F C Troque o canal, é só desligar F C Já que me trocou por um outro alguém F G Substituir, é o que te convém
C Em Mas quando o coração não me enxergar F Fm Vai te deixar louca de saudade, louca de saudade C Em O coração vai me desejar F Fm E te deixa louca de saudade, louca de da saudade Dm G Eu quero ver então se vai poder trocar Dm G C A Eu quero ver então se vai poder trocar de coração D F#m Mas quando o coração não me enxergar G Gm Vai te deixar louca de saudade, louca de saudade D F#m O coração vai me desejar G Gm E te deixa louca de saudade, louca de da saudade Em A Eu quero ver então se vai poder trocar Em A D F#m G Gm Eu quero ver então se vai poder trocar de coração
   
e|-------------------------------------------------------------|
B|-------------------------------------------------------------|
G|--7--7--7--9--9--9/11--11--11/12--11--11--9--9---------------|
D|-------------------------------------------------------------|
A|-------------------------------------------------------------|
E|-------------------------------------------------------------|

e|-------------------------------------------------------------|
B|------7---7h8--7-7-----------10-10-10/11-8-7p8p7\5--2-3------|  
G|-7-9----7-----------9-9--7-------------------------------2/4-|
D|-------------------------------------------------------------|
A|-------------------------------------------------------------|
E|-------------------------------------------------------------|

Compartilhe esta música: novo

QR Code
Copiar