Louca De Saudade

Jorge e Mateus

Tom: C
Intro:  C  G   F  Fm   

  
        C                Em              F           Fm             C           Em        F       Fm    
E|---------------|---------------|---------------------|-1-3-3/4-3----------|--3-------------------------|   
B|-1-1-1/3-3/5-5-|-5/6-5-5-5/3-3-|-1-1-3/5-6-5-5-3-3-1-|----------6-6/8-----|---1/3-1/3---5-------3------|   
G|---------------|---------------|---------------------|---------------7/9--|--------------4/5-----2--4--|   
D|---------------|---------------|---------------------|--------------------|--------------------------5-|   
A|---------------|---------------|---------------------|--------------------|----------------------------|   
E|---------------|---------------|---------------------|--------------------|----------------------------|
F G Se uma canção me lembrar F C Troque o CD, não ouça mais F G Se um perfume me recordar F C Troque de marca não use mais F C Já que me trocou por um outro alguém F G Substituiu, é o que te convém
C Em Mas quando o coração não me enxergar F Fm Vai te deixar louca de saudade, louca de saudade C Em O coração vai me desejar F Fm E te deixa louca de saudade, louca de da saudade D G C Em F Fm Eu quero ver então se vai poder trocar de coração
C G Se algum lugar me lembrar F C Troque de rota, não passe lá C G Se um filme me recordar F C Troque o canal, é só desligar F C Já que me trocou por um outro alguém F G Substituiu, é o que te convém
C G Mas quando o coração não me enxergar F Fm Vai te deixar louca de saudade, louca de saudade C Em O coração vai me desejar F Fm E te deixa louca de saudade, louca de da saudade Dm F G C A Eu quero ver então se vai poder trocar de coração D A Mas quando o coração não me enxergar G Gm Vai te deixar louca de saudade, louca de saudade D A O coração vai me desejar G Gm E te deixa louca de saudade, louca de da saudade Em G A D Eu quero ver então se vai poder trocar de coração
  
              D                F#m            G                 Gm              D   
E|---------------|---------------|-------------------------|-3-5-5/6-5-----------|   
B|-3-3-3/5-5/7-7-|-7/8-7-7-7/5-5-|-3-3-3/5-5/7-8-7-7-5-5-3-|----------8-8/10-----|   
G|---------------|---------------|-------------------------|----------------9/11-|   
D|---------------|---------------|-------------------------|---------------------|   
A|---------------|---------------|-------------------------|---------------------|   
E|---------------|---------------|-------------------------|---------------------|

Compartilhe esta música: novo

QR Code
Copiar