Aí Ja Era

Jorge e Mateus

Tom: G
intro:  C7+ D Am7    C D Em7(9)    C D Am7    C  D  Em7(9)  C9/E       



 
Introdução  


 e|-------5--7--5------------------------5--7--5----10--5/7------|  
 B|-5-7-8----8--7--8-7-7-8--5------5-7-8----8--7--------------7--|  
 G|----------9--7---------------------------9--7--7------------7-|  
 D|-------------0-------------7--5-------------0----------------7|  
 A|-------------------------7------------------------------------|  
 E|----------8-----------5------------------8---------------0----|  


 e|-------5--7--5-----------------------5--7--5------------------|  
 B|-5-7-8----8--7--8-7-7-8--5-----5-7-8----8--7-8-7-7------------|  
 G|----------9--7--------------------------9--7---------7--------|  
 D|-------------0-------------7-5-------------0----------7-------|  
 A|-------------------------7------------------------------10-9-7|  
 E|----------8-----------5-----------------8----------0----------|  




 Versos 1 e 2  


 e|-----------------3---2-------3-----7-----7--7---2----0-------|  
 B|---0---3---0--3--3---3----3--3--3------0----0---3--3---------|  
 G|---0---0---0-----0---4--4----0-------0------0---2------------|  
 D|---0---2---0------------------------------------0------------|  
 A|-------3---------3-----------3--------------------------3----|  
 E|---3-------3---------3----------------------3----------------|  


 e|--3p2p0--2--3-5--12--14--15--14---------3--0------------2----|  
 B|---------3-------13--15--17--15------3-----0----1-----3------|  
 G|-----------------------------------2-------0--0-----2--------|  
 D|---------------------------------0----------------0----------|  
 A|-------------------------------------------3-----------------|  
 E|---------0---------------------------------------------------|  


 e|--5---3---2------------5----3---2------3----------------------|  
 B|--0-----------3---3----3------------3--3----------------------|  
 G|--0-0---0---0---0---0--2--2---2---2----0----------------------|  
 D|-----------------------0---------------2----------------------|  
 A|---------------------------------------3----------------------|  
 E|--3-----------------------------------------------------------|  



 Refrão  


 e|-3-------0-----------------2-----3--------0------------------|  
 B|-3---3---0---3----0--------3---3-3---3----0---3---0----------|  
 G|-0-0---2-0-0-2----0---0----2-2---0-0---0--0-0-2-2-0---0------|  
 D|-------------0-0--0-0---0--0------------------0---0-0---0----|     
 A|3-------------------------------3----------------------------|        
 E|--------0---2----3-----------------------0---2---3-----------|  


 e|-2-----3--------2---------------2-----0-------2-------3------|  
 B|-3---3-3---3----3---3---3-------1---1-0---0---3---3---3---3--|  
 G|-2-2---0-0---0--2-2-2---4---4---2-2---0-0---0-2-2---2-0-0---0|  
 D|-0--------------0---2-2-4-4---4-1-------------0--------------|  
 A|-------3------------3---2-----------------------------3------|  
 E|--------------------------------------0----------------------|  


 e|--2------------5---7-----------------------------------------|  
 B|--3---5--7--8------8-----------------------------------------|  
 G|--2----------------9-----------------------------------------|  
 D|--0----------------------------------------------------------|  
 A|-------------------------------------------------------------|  
 E|-------------------8-----------------------------------------|  
(primeira parte) G C9 Para pra pensar, porque eu já me toquei, G D C9 Eu te escolhi e você me escolheu, eu sei. G7M C9 Tá escancarado, vai negar pro coração? G D C9 E você tá com sintomas de paixão! Em7(9) D É quando os olhos se caçam em meio à multidão, C9 D Quando a gente se esbarra andando em qualquer direção. G D C9 Quando indiscretamente a gente vai perdendo o chão e vai ficando bobo, C9 D Vai ficando bobo...
Em D/F# G D C9 E aí já era é hora de se entregar, Em D/F# G D C9 O amor não espera, só deixa o tempo passar. D D/C Bm D#º Em E fica pro coração a missão de avisar, D C9 D G E o meu tá dando sinal e tá querendo te amar!
intro 2: C D Am7 C D Em7(9) C D Am7 C D Em7(9) C9/E (solo intro 2) (repete a música) (repete o refrão 2x) variação no refrão final: D C9 D Am7 Em7/9 E o meu tá dando sinal e tá querendo te amar! D C9 D E o meu tá dando sinal e tá querendo te amar!

Compartilhe esta música: novo

QR Code
Copiar