Quién Me Ha Robado El Mes De Abril?

Joaquín Sabina

Tom: G
Intro 

E|-3/5-3---------------5-|-3/5-3----------------3----| 
B|-3/5-3--3/5-3--------5-|-3/5-3--3/5-3---------3----| 
G|--------2/4-2--------5-|--------2/4-2---------4----| 
D|---------------------7-|----------------------5----| 
A|---------------------7-|----------------------5----| 
E|--------------3-4-5--5-|---------------1-2-3--3----| 

E|-3/5-3---------------5-|-3/5-3-------------------------3-----2-| 
B|-3/5-3--3/5-3--------5-|-3/5-3--3/5-3--------1----1----3-----3-| 
G|--------2/4-2--------5-|--------2/4-2--------0----0----0-----2-| 
D|---------------------7-|---------------------0----0--------0---| 
A|---------------------7-|---------------0-2-3----2--------------| 
E|--------------3-4-5--5-|-----------------------------3---------| 
Las ultimas tres notas las va variando a lo largo de la intro G En la posada del fracaso F Donde no hay consuelo ni ascensor C El desamparo y la humedad G Comparten colchón Em Y cuando por la calle pasa F C La vida como un huracán Bbm Am El hombre del traje gris C Saca un sucio calendario del bolsillo Y grita G D C ¿Quién me ha robado el mes de Abril? G D C ¿Cómo pudo sucederme a mi? G D C ¿Quién me ha robado el mes de Abril? Bm Am Lo guardaba en el cajón C D Donde guardo el corazón G La chica debut casi todas F Las asignaturas suspendió C Del curso que preñada G Aquel chaval la dejo Em Cuando en la pizarra pasa F C Lista el profe de latín Bbm Am Lagrimas de desamor C Ruedan por las paginas de un block Y dice G D C ¿Quién me ha robado el mes de Abril? G D C ¿Cómo pudo sucederme a mi? G D C ¿Quién me ha robado el mes de Abril? Bm Am Lo guardaba en el cajón C D Donde guardo el corazón Solo
Esta dentro de la escala pentatónica de G mayor 

E|-----------------------------------------------------| 
B|-----------------------15-15--13/12-13---15--13--12--| 
G|----12-----14b--12-14--------------------------------| 
D|-12----12--------------------------------------------| 
A|-----------------------------------------------------| 
E|-----------------------------------------------------| 

E|--------------------------------------------------| 
B|---------------------------13--13-12/13-12/15-15--| 
G|----12------14b--12--------12---------------------| 
D|-12----12------------14---------------------------| 
A|--------------------------------------------------| 
E|--------------------------------------------------| 
G D C ¿Quién me ha robado el mes de Abril? Bm Am Lo guardaba en el cajón C D Donde guardo el corazón G El marido de mi madre F En el ultimo tren se largo C Con una peluquera G 20 años menor Em Y cuando exhiben esas risas F C De instamatic en Paris Bbm Am Derrotado en un sillón C Se marchita viendo Falcon Crest Mi vieja y piensa G D C ¿Quién me ha robado el mes de Abril? G D C ¿Cómo pudo sucederme a mi? G D C ¿Quién me ha robado el mes de Abril? Bm Am Lo guardaba en el cajón C D Donde guardo el corazón

Compartilhe esta música: novo

QR Code
Copiar