Arenas Movedizas

Joaquín Sabina

Tom: G
            G  C  Bm F  Am G7  
  E||---3--O--2--1--O--1-- 
  B||---O--1--3--1--1--O-- 
  G||---O--O--4--2--2--O-- 
  D||---O--2--4--3--2--O-- 
  A||---2--3--2--3--O--2-- 
  E||---3--X--X--1--X--3-- 

      INTRO:  ( guitarra eléctrica) 

       G            C      
  E|----------------------|    
  B|--------------3-1-----| 
  G|------------O---------|  BIS  
  D|------O-2-4-----------| 
  A|----------------------| 
  E|----------------------|
G C Mañana cuando era tan pequeño G F C por el Acantilado del Obispo caí Bm Am persiguiendo un pájaro sin dueño C G G7 y aterricé en un polvorín F de arenas movedizas Am C G bajo un cielo de betún, Am C G caracolas que agonizan F C G sin decir ni mu. G C Cuando el gallo a sueldo de la madrugada, G F C llegó con su kikirikí, Bm Am desperté soñando que viajaba C G G7 desnudo con un maletín F de arenas movedizas Am C G bajo un cielo de tergal, Am C G matasellos que agonizan F C G G7 tan lejos del mar F de arenas movedizas Am C G bajo un cielo de alquiler, Am C G alfileres que agonizan F C G antes de nacer.
         G           C               G   
    E|------------------|----3-O--------| 
    B|-------------3-1--|--------3-O----| 
    G|-----------O------|------------O--|  BIS (la 1º vez se hace hasta la línea  
    D|-----O-2-4--------|---------------|      divisoria. La 2º vez se hace hasta 
    A|------------------|---------------|      el final)  
    E|------------------|---------------|
G C A mi cita fuí pero el horizonte G F C se había cansado de esperar, Bm Am me llamó san Pedro por mi nombre C G G7 y no le quise contestar. F Y arenas movedizas Am C G bajo un cielo de almidón, Am C G paquebotes que aterrizan F C G G7 sin pedir perdón. F Arenas movedizas Am C G bajo un cielo regaliz, Am C G ascensores que agonizan F C G por la cicatriz.

Compartilhe esta música: novo

QR Code
Copiar