Quer Apostar?

João Marcos e Rodrigo

Tom: F#m
F#m             D
Pa,     Pa, ra, ra
A    E
Uo, uooo
F#m             D
Pa,     Pa, ra, ra
A      E
Ie ie ie


Solo:

E|-------4-5-4-----5-7-5-4-------------------------------------------------|
B|-7-7-7-------7-5---------7-----------------------------------------------|
G|-------------------------------------------------------------------------|
D|-------------------------------------------------------------------------|
A|-------------------------------------------------------------------------|
E|-------------------------------------------------------------------------|


E|-------4-5-4-----5-5-5-7-7-7---------------------------------------------|
B|-7-7-7-------7-5---------------------------------------------------------|
G|-------------------------------------------------------------------------|
D|-------------------------------------------------------------------------|
A|-------------------------------------------------------------------------|
E|-------------------------------------------------------------------------|

F#m D Para com essa marra A E Para de me esnobar F#m D Hoje você ri A Amanhã vai chorar E Quer apostar? F#m Tentei D A E Pedi pra você mudar F#m Te falei D A E Depois não vai adiantar F#m D A E Chorar, implorar, de joelhos ficar F#m D Não vou voltar pra você A E F#m Se liga ou vai me perder D Pa, ra, ra A E Uo, uooo F#m D Pa, Pa, ra, ra A E Ie ie ie F#m Vou pra balada D Aproveitar A Sempre fui certinho E Agora eu vou desandar F#m Era só seu D Não deu valor A Agora sou de todas E Me tornei o 'pegador” (2x)
Solo:

e|-------4-5-4-----5-7-5-4-------------------------------------------------|
B|-7-7-7-------7-5---------7-----------------------------------------------|
G|-------------------------------------------------------------------------|
D|-------------------------------------------------------------------------|
A|-------------------------------------------------------------------------|
E|-------------------------------------------------------------------------|


e|-------4-5-4-----5-5-5-7-7-7---------------------------------------------|
B|-7-7-7-------7-5---------------------------------------------------------|
G|-------------------------------------------------------------------------|
D|-------------------------------------------------------------------------|
A|-------------------------------------------------------------------------|
E|-------------------------------------------------------------------------|

Compartilhe esta música: novo

QR Code
Copiar