Closer To You

JJ Cale

Tom: Dm


STANDARD TUNING 
Intro: Dm-C-C-Dm 

STRUMMING PATTERN : DOWNWARDS : Down-Dead string-Down 
GUITAR I: 

e||---------------------------------------| 
B||---------------------------------------| 
G||---5-7--5--77~~------5-7----5-7----5-7-| 
D||-7-----------------7------7------7-----| 
A||---------------------------------------| 
E||---------------------------------------| 

e|---------------------------------------------|| 
B|---------------------------------------------|| 
G|----5-7--7-5-7-5-7~-p5--5----5-7---5h7-5h7~--|| 
D|--7-----7--------------7---7-----------------|| 
A|---------------------------------------------|| 
E|---------------------------------------------|| 

GUITAR II: 

e||--------------------------------|| 
B||--------------------------------|| 
G||---7-x-7--5-x-5---5-x-5--7-x-7--|| 
D||---7-x-7--5-x-5---5-x-5--7-x-7--||==(2x) 
A||---5-5-5--3-3-3---3-3-3--5-5-5--|| 
E||--------------------------------|| 
Dm C Wish I was a stocking clanging to your thigh C Dm (extra strum here) Everytime you'd move around I'd view you walking by Dm C Wish I was your underwear hanging around your waist C Dm Everytime you'd shake that thing I'd get a little taste Dm C C Dm Closer, closer, closer to you Dm C C Dm Closer, got to get closer, closer to you Dm C If I was a pair of boots I wouldn't have to beg C Dm I'd be satisfied just being around your leg Dm C When I am dreaming it takes so many trips C Dm I'd pretend that I'm a stick to decorate your lips Dm C C Dm Closer, closer, closer to you Dm C C Dm Closer, got to get closer, closer to you Dm C If I am a necklace hanging down your front C Dm When you feel the time was right I'd notice what you want Dm C Wish I was a silk shirt draped around your back C Dm Right next to your skin tryin' to make contact Dm C C Dm Closer, closer, closer to you Dm C C Dm Closer, closer, closer to you Dm-C-C-Dm(2x) Dm C If I had my wishes, If I had my way C Dm I'd be all the same to you, each and everyday Dm C C Dm Closer, closer, closer to you Dm C C Dm Closer, closer, closer to you

Compartilhe esta música: novo

QR Code
Copiar