Letting Go

Jeremy Camp

Tom: A
Capotraste na 4ª casa
Intro-Chords: {   Em F/A }  x2 


Intro Tab: 
With  

E|----------------------------------------8=========--| 
B|------3--3-5------------------3--3-5----8--6--5===--| 
G|--4/5-------4---3-4-2-----4/5-------4------------5--| 
D|----------------------------------------------------| 
A|----------------------------------------------------| 
E|----------------------------------------------------| 

/ - Slide 
= - hold 
Verse 1: Em F/A Grippin on so tight Em F/A WIth the security I have inside Em F/A Knowing what is right Em F/A Holding on to my pride
G Am Letting Go Em F2 Of the things I hold so dear G Am Letting go Em F2 All my pain and all my fears G Am Letting go Em F2 Of the things I hold so dear G Am Letting go C F2 Intro All my pain and all my fears
Verse 2: Em F/A I have been brought to a place Em F/A Where I want to give up everything Em F/A Where all I can do is seek your face Em F/A (C5 Cdim) In my brokenness I will plea (Chorus) Bridge: Dm Am G Holding on, to the things I've deemed so strong Dm Am G Holding on, even though my faith has been built so long Dm Am G Holding on, to the things I've deemed so strong F G Holding on to what I know I'm letting go (Solo)
Tab: 
E|-------------------------------------------------------3-----| 
B|-------3-5--3---3-----------------3-5--3---3---6-5-3-5---3---| 
G|---4-5--------5---4--5--2-----4-5--------5-------------------| 
D|--5--------------------------5-------------------------------| 
A|-------------------------------------------------------------| 
E|-------------------------------------------------------------| 
(Chorus)

Compartilhe esta música: novo

QR Code
Copiar