Cruel song

Jean Leloup

Tom: Dm
Intro : 
                                                                 Dm                A                  G                                                                                                       
e--------------------------5--5--x--5--5--x--3----3--x--3-- 
b--------------------------6--6--x--5--5--x--3----3--x--3-- 
g--------------------------7--7--x--6--6--x--4----4--x--4-- 
D--------------7--5-----7--7--7--x--7--7--x--5----5--x--5-- 
A-----5--7--8--------8--------5--x--7--7--x--5----5--x--5-- 
E--5--------------------------5--x--5--5--x--3----3--x--3? 
  
  
   F                    Dm                      A                   G                                            A                  
e--1--1--x--5--5--5--x--5--5--x--3----3--3--x--3--x-/5---- 
b--1--1--x--6--6--6--x--5--5--x--3----3?-3--x--3--x-/5---- 
g--2--2--x--7--7--7--x--6--6--x--4----4--4--x--4--x-/6---- 
D--3--3--x--7--7--7--x--7--7--x--5----5--5--x--5--x-/7---- 
A--3--3--x--5--5--5--x--7--7--x--5----5--5--x--5--x-/7---- 
E--1--1--x--5--5--5--x--5--5--x--3----3--3--x--3--x-/5---- 
  
               Dm                       A                  G                                             F 
e--x--5--5--5--x--5--5--x--3----3--3--x--3--x--1-- 
b--x--6--6--6--x--5--5--x--3----3--3--x--3--x--1-- 
g--x--7--7--7--x--6--6--x--4----4--4--x--4--x--2-- 
D--x--7--7--7--x--7--7--x--5----5--5--x--5--x--3-- 
A--x--5--5--5--x--7--7--x--5----5--5--x--5--x--3-- 
E--x--5--5--5--x--5--5--x--3----3--3--x--3--x--1? 
Dm A G One morning he gave me a flower Dm A G F G With that beautiful smile in his eyes One morning he gave me a flower One heaven could not provide Dm Bb G A Dm Dm Bb G A Cruel sun, no one to change your mind Cruel sun, no one to change your mind Dm A G That old sun watching from over Dm A G F G Felt the flower child so close to light That old sun watching from over So he turned the boy to the night Dm Bb G A Dm Dm Bb G A Cruel sun no one to change your mind No one to change, cruel sun A G A No one to change, no one to change, no one to change Dm A G As darkness ravages his eyes The mother child has gone blind Stumbling through flowers delight And the sun is shining proud Bb Cheering such a beautiful fall It was the flower child after all Dm Bb G A Dm Cruel sun, no one to change your mind (x2) G A And the song goes along those lines G C I dare you to wear that smile G Flower child Your eyes are mine (x2) Dm Bb G A Dm Foolish child when you let the sun shine (x4)

Compartilhe esta música: novo

QR Code
Copiar