Parachute

Jaymes Young

Tom: Am
Extra Info: 

>In some parts of the song the electric guitar plays: 

e| 8/10/8---------8/10/8------8/10/8---------8/10/8---| 
b| -------10-8---8-------10----------10-8---8------10-| 
g| ---------------------------------------------------| 
d| ---------------------------------------------------| 
a| ---------------------------------------------------| 
e| ---------------------------------------------------| 

/ = slide 

>In the Chorus there's also an electric guitar which plays: 

e| -5--5----5--5- 
b| -5--5----5--5- 
g| -5--5----5--5- 
d| -7--7----7--7- 
a| -------------- 
e| -------------- through the whole Chorus. 
__________________________________________________________
WARNING: The chords may not be placed exactly where they are played. The rhythm is a bit difficult... Intro: Am G Dm G Am 2x Am G Dm G Am Sweentness I can read your mind Am G Dm G Am I see your skin turn red when you lie Am G If you dont wanna tell me nothing Dm G Am Then you can go straight to hell Am G Now I'm gonna tell you something Dm G Am You fucked this up yourself Am G I'm pulling out my parachute Dm G Am And I'm jumping from the plane we flew Am G First I'm gonna tell the truth Dm G Am But then I'm burning my bridge to you Am G Dm G Am One step was all it really took Am G And I don't know your story G Dm G Am But girl I read your book Am G If you don't wanna tell me nothing Dm G Am Then you can go straight to hell Am G But first im gonna show you something Dm G Am You fucked this up yourself Am G I'm pulling out my parachute Dm G Am And I'm jumping from the plane we flew Am G First I'm gonna tell the truth Dm G Am But then I'm burning my bridge to you Am G Dm G Am Ohhhh... Ohhhh... 2x Am G Am D Don't lie, you're lying through your teeth Am G Am D And dont try to touch me im afraid of your disease Am Am G I'm pulling out my parachute Dm G Am And I'm jumping from the plane we flew Am G First I'm gonna tell the truth Dm G Am But then I'm burning my bridge to you Am G Dm G Am Ohhh... Ohhhh... 2x Outro: Am G Dm Am Made by ZeldaX3

Compartilhe esta música: novo

QR Code
Copiar