Dr Jeckyll Mr Hyde

Ivan Graziani

Tom: D
D7 G7 4v 
D7 G7 2v 
D7 C  
D7 G7 2v 
D7                G7  
Se tu lo giri è uguale,    
D7                G7 
si dà ragione da solo 
D7  
anche da bambino lui si incoraggiava 
C                      D7     G7 
a dare sfogo ai suoi difetti 
                       D7    G7 
Doctor Jekyll & Mister Hyde. 
D7                      G7   
Come tu, tu lo metti è bravo 
D7                   G7   
lo puoi incontrare ovunque 
D7  
al caffè, sotto ai piedi dell’attore 
C                 D7    G7 
recitare soldi e amore 
                        D7     G7 
Doctor Jekyll & Mister Hyde. 
D7  G7 D7   G7 D7  
Lui è  lui è   lui è 
C                       D7   G7 
quello che non sei, ma vuoi 
                        D7   G7 
Doctor Jekyll & Mister Hyde. 

Solo 
D7 G7 2v 
D7 C  
D7 G7 2v 

D7 G7 2v 
D7 C  
D7 G7 2v 

D7         G7  
Uh, quante donne ha sempre avuto lui 
D7                  G7  
uh, giochi per la mente e per il corpo 
D7  
anche tu se di giorno non lo sei 
C                    D7   G7 
di notte assomigli a lui 
                       D7    G7 
Doctor Jekyll & Mister Hyde. 
D7                  G7  
Adesso gira per il mondo da sé 
D7                            G7  
paga tutto con parole, con la vita degli amici 
D7  
si rompe il collo e cambia sempre pelle 
C                          D7  G7 
e ne fa un trono dei suoi guai 
                        D7 G7 
Doctor Jekyll & Mister Hyde 
             D7 G7            D7   G7 
Doctor Jekyll     Mister Hyde. 
D7  G7 D7   G7 D7  
Lui è  lui è   lui è 
C                       D7   G7 
quello che non vuoi, ma sei 
                       D7    G7 
Doctor Jekyll & Mister Hyde. 
D7 G7 ad lib 
  
Intro 

|---------------------------------------| 
|-------------------------------0-1-2-3-| 
|------------2--4p2-----0-0--0----------| 
|-0-0--0-2/4--------3h4-----------------| 
|---------------------------------------| 
|---------------------------------------| 

|-----------------------------------------| 
|-------------------------------3-2-1-0---| 
|------------2--4p2-----0-0--0----------0-| 
|-0-0--0-2/4--------3h4-------------------| 
|-----------------------------------------| 
|-----------------------------------------| 


|---------------------------------------| 
|-------------------------------0-1-2-3-| 
|------------2--4p2-----0-0--0----------| 
|-0-0--0-2/4--------3h4-----------------| 
|---------------------------------------| 
|---------------------------------------| 

|------------------------------------| 
|-------------------------------3-1--| 
|------------2--4p2-----0-0--0-------| 
|-0-0--0-2/4--------3h4--------------| 
|------------------------------------| 
|------------------------------------| 

|-----2------2------1------1-| 
|-----1------1------0------0-| 
|-----2------2------0------0-|  x2 
|-0-0----0-0--------0------0-| 
|----------------------------| 
|---------------3-3----3-3---| 

|-----2------2------2------2--------------| 
|-----1------1------1------1--------------| 
|-----2------2------2------2--------------| 
|-0-0----0-0----0-0----0-0----------------| 
|------------------------------3--2--0----| 
|---------------------------------------3-| 

|---------------------------------------| 
|-------------------------------0-1-2-3-| 
|------------2--4p2-----0-0--0----------| 
|-0-0--0-2/4--------3h4-----------------| 
|---------------------------------------| 
|---------------------------------------| 

|-----------------------------------------| 
|-------------------------------3-2-1-0---| 
|------------2--4p2-----0-0--0----------0-| 
|-0-0--0-2/4--------3h4-------------------| 
|-----------------------------------------| 
|-----------------------------------------| 


Solo (2 guitars arr. for 1) 

|----13----13-------------------13----13--------------------10-| 
|-10----10----10-11-12\------10----10----10-11-12-----10h12----| 
|--------------------------------------------------------------| 
|--------------------------------------------------------------| 
|--------------------------------------------------------------| 
|--------------------------------------------------------------| 

|-10--------13-10------13-13-10--------15-17-15-13-12—20-| 
|----10-----------10------------10-----17-16-17-15-13-17-| 
|-------10-----------------------------------------------| 
|--------------------------------------------------------| 
|--------------------------------------------------------| 
|--------------------------------------------------------| 

|-----------------------------12-13--12h13p12--10--8-----| 
|-----------------------------12-13--12h13p12--10--8-----| 
|------------2--4p2-----0--------------------------------| 
|-0-0--0-2/4--------3h4----------------------------------| 
|--------------------------------------------------------| 
|--------------------------------------------------------| 

|---------------------------------------| 
|-------------------------------0-1-2-3-| 
|------------2--4p2-----0-0--0----------| 
|-0-0--0-2/4--------3h4-----------------| 
|---------------------------------------| 
|---------------------------------------| 

|----13----13----13---------------10---------------------| 
|-10----10----10----12------10h12------------------------| 
|------------------------------------12h10-----10-12-----| 
|------------------------------------------12------------| 
|--------------------------------------------------------| 
|--------------------------------------------------------| 

|----13----13----------------------10--------------------| 
|-10----10----10-11-12-------10h12-----------------------| 
|--------------------------------------------------------| 
|--------------------------------------------------------| 
|--------------------------------------------------------| 
|--------------------------------------------------------| 

|-10--------13-10----------13-10---------8-8-8-----------| 
|----10-----------10-------------10------8-8-8h10p8------| 
|-------10--------------10-------------------------------| 
|--------------------------------------------------------| 
|--------------------------------------------------------| 
|--------------------------------------------------------| 

|-------------------------------10-12-13-----------------| 
|-------------------------------12-13-15-----------------| 
|------------2--4p2-----0--------------------------------| 
|-0-0--0-2/4--------3h4----------------------------------| 
|--------------------------------------------------------| 
|--------------------------------------------------------| 

Compartilhe esta música: novo

QR Code
Copiar