Parece Castigo

Hugo Pena e Gabriel

Tom: C
Intro: C (C7) Am F G (a intro se repete durante a música, escutar para pegar direito) 

e|-9/11-11-11-11--------11-11-12-11-9-7---------------------------------------------------------| 
B|-------------12-14--------------------10/12-12-12-12-------12-12-14-12-11-9-------------------| 
G|---------------------------------------------------13-15--------------------------------------| 
D|----------------------------------------------------------------------------------------------| 
A|----------------------------------------------------------------------------------------------| 
E|----------------------------------------------------------------------------------------------| 

e|----------------------------------------------------------------------------------------------| 
B|-7/9-9-9-9------------11-9-------------9/11-11-11-11-------11-11-12-14-12-11-12---------------| 
G|-----------10-11-13-13-------11-13-15----------------12-13------------------------------------| 
D|----------------------------------------------------------------------------------------------| 
A|----------------------------------------------------------------------------------------------| 
E|----------------------------------------------------------------------------------------------| 
C Am Eu não consigo te esquecer F Meu coração só me faz sofrer Dm G A cada dia chego a delirar C Agora eu sei a falta que faz Am Parece até ser um castigo F A solidão quer acabar comigo Dm Não posso mais viver sem essa paixão G De outra chance pro meu coração C Am Aonde estou que eu não perco a cabeça F Volte pra mim antes que eu enlouqueça Dm Aonde estou que vejo o mundo girar G C Será que um dia isso vai acabar F,G,C,C7,F,G,C,G,C Parece até ser um castigo... REPETE REFRAO

Compartilhe esta música: novo

QR Code
Copiar