Way Back Into Love

Hugh Grant and Haley Bennett

Tom: Bb
Intro:   Bb      Gm       Bb       Gm   
         Cm7    F7/4 F7    Cm7    F7/4 F7 


E||--1--3--5--6--5--3---------|-----1----1-----------|--1--3--5--6--5---3-----------------| 
B||--------------------------3--|-----------------------|----------------------------3----| 
G||-----------------------------|-----------------------|---------------------------------| 
D||-----------------------------|-----------------------|---------------------------------| 
A||-----------------------------|-----------------------|---------------------------------| 
E||-----------------------------|-----------------------|---------------------------------| 


  

E||-------3----3-----------|--3--1-------------------|----------3--3--3--3------| 
B||-------------------------|---------4--3--------1--|--------------------------| 
G||-----------------------|--------------------------|--------------------------| 
D||-----------------------|--------------------------|--------------------------| 
A||-----------------------|--------------------------|--------------------------| 
E||-----------------------|--------------------------|--------------------------| 




E||--1-------------------|--------------------| 
B||---------4-3---4-3--1-|--------------------| 
G||----------------------|--------------------| 
D||----------------------|--------------------| 
A||----------------------|--------------------| 
E||----------------------|--------------------| 
Bb Gm Bb I've been living with a shadow overhead Gm Cm7 I've been sleeping with a cloud above my bed F7/4 F7 I've been lonely for so long Cm7 F7/4 F7 Trapped in the past, I just can't seem to move on Bb Gm Bb I've been hiding all my hopes and dreams away Gm Cm7 Just in case I ever need 'em again someday F7/4 F7 I've been setting aside time Cm7 F7/4 F7 Bb To clear a little space in the corners of my mind Bb Gm Eb Bb All I wanna do is find a way back into love Bb Gm Eb Bb I can't make it through without a way back into love F7 Eb F7 Ohhhhh Bb Gm Bb I've been watching but the stars refuse to shine Gm Cm7 I've been searching but I just don't see the signs F7/4 F7 I know that it's out there Cm7 F7/4 F7 Bb There’s gotta be something for my soul somewhere Bb Gm Bb I've been looking for someone to shed some light Gm Cm7 Not somebody just to get me through the night F7/4 F7 I could use some direction Cm7 F7/4 F7 Bb And I'm open to your suggestions Bb Gm Eb Bb All I wanna do is find a way back into love Bb Gm Eb Bb I can't make it through without a way back into love F7/4 And if I open my heart again F7/4 Bb I guess I'm hoping you'll be there for me in the end Solo: Bb Gm Bb Gm Cm7 F7/4 F7 Cm7 F7/4 F7 Bb Gm Bb There are moments when I don't know if it's real Gm Cm7 Or if anybody feels the way I feel F7/4 F7 I need inspiration Cm7 F7/4 F7 Not just another negotiation Bb Gm Eb Bb All I wanna do is find a way back into love Bb Gm Eb Bb I can't make it through without a way back into love F7/4 And if I open my heart to you F/G Gm F/G Gm I'm hoping you'll show me what to do Cm7 And if you help me to start again F7/4 F7 Bb You know that I’ll be there for you in the end Solo: Bb Gm Bb Gm Cm7 F7/4 F7 Cm7 / F7/4 F7 Bb Gm Bb Gm Cm7 F7/4 F7 Cm7 F7/4 F7 Bb

Compartilhe esta música: novo

QR Code
Copiar