Wicked Game

HIM

Tom: Bm

Intro: 

E|--------|--------|--0-----|--0-------------| 
A|—-2-----|--0-----|----2---|----2-----------| 
D|----4---|----2---|--------|--------2---2---| 
G|--------|--------|------1-|------1—--2---4-| 
B|------3-|------2-|--------|----------------| 
e|--------|------0-|--------|----------------| 

E|--------|--------|--0-----|--0-------------| 
A|—-2-----|--0-----|----2---|----2-----------| 
D|----4---|----2---|--------|--------2---2---| 
G|--------|--------|------1-|------1—--2---4-| 
B|------3-|------2-|------0-|----------------| 
e|------2-|------0-|------0-|----------------| 

También se pueden usar este arreglo en la intro si gustan 

E|--------|--------|--0-----|--0-----------| 
A|—-2-----|--0-----|----2---|----2---------| 
D|----4---|----2---|--------|--------------| 
G|--------|--------|------1-|------1—1^2—4-| 
B|------3-|------2-|--------|--------------| 
e|--------|------0-|--------|--------------|

VERSO: Bm A E The world was on fire and no one could save me but you. Bm A E It's strange what desire will make foolish people do. Bm A E I never dreamed that I'd meet somebody like you. Bm A E I never dreamed that I'd love somebody like you.
Bm A E I don't want to fall in love. Bm A E I don't want to fall in love. Bm A E With you.
VERSO 2: Bm A E What a wicked game to play, to make me feel this way. Bm A E What a wicked thing to do, to let me dream of you. Bm A E What a wicked thing to say, you never felt this way. Bm A E What a wicked thing to do, to make me dream of you and,
Bm A E I don't want to fall in love. Bm A E I don't want to fall in love. Bm A E - I don't want to fall in love. Bm A E I don't want to fall in love. Bm A E With you.
VERSO 3: Bm A E The world was on fire and no one could save me but you. Bm A E It's strange what desire will make foolish people do.
Bm A E I don't want to fall in love. Bm A E I don't want to fall in love. Bm A E I don't want to fall in love. Bm A E I don't want to fall in love. Bm A E With you.
TERMINA CON ESTE ACORDE: 
E|-----| 
A|--2--| 
D|--2--| 
G|--1--| 
B|-----| 
e|--2--|

Compartilhe esta música: novo

QR Code
Copiar