Tom: C

Intro (0:00) 

   C           F       G  Bb C    C         F        G   Eb C 
e--------3-2---1--|-------------|------3-2---1--|-------------| 
b------1-----3----|--4-3-----1--|----1-----3----|--4-3---4-1--| 
g----0------------|--------3----|--0------------|-------------| 
d-----------------|-------------|---------------|-------------| 
a--3--------------|-------------|---------------|-------------| 
e-----------------|-------------|---------------|-------------| 
Verse (0:23) G Wer hat dich geplant, gewollt Dich bestellt und abgeholt Wer hat sein Herz an dich verloren C G Warum bist du geboren F C Wer hat dich geboren Verse (0:50) G Wer hat sich nach dir gesehnt Wer hat dich an sich gelehnt Dich, wie du bist, akzeptiert C G Dass du dein Heimweh verlierst C D G Dass du dein Heimweh verlierst Chorus (1:18) F# Dreh dich um D#m Bb Dreh dich um F# D#m Bb Dreh dein Kreuz in den Sturm A F# C#m Bm Wirst dich versöhnen, wirst gewähren, F# D#m Bb Selbst befreien für den Weg zum Meer Verse (1:52) G Wer ersetzt dir dein Programm Nur wer fallen, auch fliegen kann Wer hilft dir, dass du trauen lernst C G Du dich nicht von dir entfernst F C G Du dich nicht von dir entfernst Chorus (2:19) F# Dreh dich um D#m Bb Dreh dich um F# D#m Bb Vergiß deine Schuld, dein Vakuum A F# C#m Bm Wende den Wind, bis er dich bringt F# D#m Bb Weit zum Meer, Du weißt, wohin
Solo (2:52) 

e------1-0--------------------|--6-5-6---4------1-----------| 
b----------1-4----2-1----2----|--------6---7----3------1-2--| 
g----3---------------------3--|-----------------3----3------| 
d--3--------------------------|-----------------3-----------| 
a-----------------------------|-----------------------------| 
e-----------------------------|-----------------------------| 
Chorus (3:14) F# Dreh dich um D#m Bb Dreh dich um F# D#m Bb Dreh dein Kreuz in den Sturm A F# C#m Bm Geh gelöst, versöhnt, bestärkt F# D#m Bb Selbstbefreit den Weg zum Meer Outro (3:49) F# D#m Bb Selbstbefreit auf dem Weg zum Meer F# D#m Bb Selbstbefreit auf dem Weg zum Meer F# D#m Bb F# D#m Bb F# D#m Bb

Compartilhe esta música: novo

QR Code
Copiar