Kopf Hoch Tanzen

Herbert Groenemeyer

Tom: F


Intro (0:00) 

   F 
e-----1-----------------------------------------------------------| 
b----------1---------1-2-1---------------1------------------------| 
g------------------3--------x-x-x----3-------1---0-1-0----x-x-x---| 
d--3----3----3-3-3----------x-x-x--3---3---3---3-------3--x-x-x---| 
a---------------------------x-x-x-------------------------x-x-x---| 
e---------------------------x-x-x-------------------------x-x-x---| 
Wo entspringt der Sinn für Technik Woher kommt maschinelles Gespür Verse (0:13) F Was ist das Gegenteil von skeptisch F Wieso ist Unsymmetrisches prätentiös F Warum verfällt man in Hektik F Ist Ingenieursein nicht glamourös Chorus (0:25) C F Oho, Kopf hoch, tanzen C F Oho, Kopf aus und raus Verse (0:32) Wie tief sind tiefe Gefühle Wer erinnert dich, wenn du dich vergisst F Wo sitzt man zwischen den Stühlen F Und wieso immer ich Chorus (0:44) C F Oho, Kopf hoch, tanzen C F Oho, Kopf aus und raus Pont (0:51) Bbm Bbm F Bbm F Beschütze deine Seele vorm Ausverkauf Bbm C Und heb dir das Beste nicht immer bis zuletzt auf C Bis zuletzt auf Verse (1:13) Warum haben Träume keinen Abspann Und wo gehts hier überhaupt zum Spass F Wie ist man in keinem Zustand F Wie weint man eine Träne nach Chorus (1:26) C F Oho, Kopf hoch, tanzen C F Oho, Kopf aus und raus Pont (1:33) Bbm F Beschütze deine Seele vorm Ausverkauf Bbm C Und heb dir das Beste nicht immer bis zuletzt auf C Bis zuletzt auf
Solo (1:48) 

    F                        F                        F 
e------------------------|------------------------|------------------------| 
b--10-10-13-13-12-8-8-8--|--11-11-15-15-15-13-13--|--10-10-13-13-12-8-8-8--| 
g--10-10-14-14-12-9-9-9--|--12-12-16-16-16-14-14--|--10-10-14-14-12-9-9-9--| 
d------------------------|------------------------|------------------------| 
a------------------------|------------------------|------------------------| 
e------------------------|------------------------|------------------------| 


   Cm           F       Cm         F 
e--------------------|-------------------| 
b--8-8-10-11-10-6-6--|--8-8-11-10-6-6-6--| 
g--9-9-10-12-10-5-5--|--9-9-12-10-5-5-5--| 
d--------------------|-------------------| 
a--------------------|-------------------| 
e--------------------|-------------------| 
Pont (2:04) Cm Gm Beschütze deine Seele vorm Ausverkauf Cm D Und heb dir das Beste nicht immer bis zuletzt auf D Bis zuletzt auf Verse (2:20) Wieso macht man Fehler auch zweimal Und sind Seelen nur verwandt und nicht gleich Warum gibts dein Lächeln nur extra Denn du küsst so wunderbar deutsch, gehts noch Gm Wie geht man den Gang der Dinge Gm Hängt man Wünsche entspannt nur halbhoch Gm Wie wickelt man um den Finger Gm Und das Schicksal liebt dich doch Chorus (2:46) D Gm Oho, Kopf hoch, tanzen D Gm Oho, Kopf aus und raus Chorus (2:52) D Gm Mach den Kopf den Kopf aus D Gm Mach dir keinen Kopf, komm tanzen D Gm Mach den Kopf, den Kopf, den Kopf aus D Gm Mach dir keinen Kopf, komm tanzen D Gm Mach den Kopf raus und komm tanzen D Gm Mach den Kopf raus und komm tanzen D Komm und tanz!
Solo (3:15) 

    G                          G                        G 
e---------------------------|------------------------|---------------------------| 
b--12-12-15-15-14-10-10-10--|--13-13-17-17-17-15-15--|--12-12-15-15-14-10-10-10--| 
g--12-12-16-16-14-11-11-11--|--14-14-18-18-18-16-16--|--12-12-16-16-14-11-11-11--| 
d---------------------------|------------------------|---------------------------| 
a---------------------------|------------------------|---------------------------| 
e---------------------------|------------------------|---------------------------| 


   Dm             G       Dm          G 
e----------------------|---------------------| 
b--10-10-12-13-12-8-8--|--10-10-13-12-8-8-8--| 
g--11-11-12-14-12-7-7--|--11-11-14-12-7-7-7--| 
d----------------------|---------------------| x2 and fade out 
a----------------------|---------------------| 
e----------------------|---------------------|

Compartilhe esta música: novo

QR Code
Copiar