Teste Da Mãozinha (part. Hugo E Guilherme)

Henrique e Juliano

Tom: B
Capotraste na 2ª casa
 

Intro: A9  E  Bm7  D  F#m 
E|------------------------------------------| 
B|------------------------------------------| 
G|-7/9-4/6-6--4h6-4h6--6/7-6-4-2-2----------| 
D|------------------------------------------| 
A|------------------------------------------| 
E|------------------------------------------| 

E|------------------------------------------| 
B|------------------------------------------| 
G|-7/9--4h6-4h6--6/7-6-4-2------------------| 
D|-------------------------2/4--------------| 
A|------------------------------------------| 
E|------------------------------------------| 
Primeira Parte C#m7 Você não pensou D Só terminou Nem abriu os seus olhos E F#m Pra ver quem fui eu nesse tempo C#m7 Um ano e acabou D Bom enquanto durou É a desculpa Pré-Refrão F#m De quem é desprovido de sentimento E D Um por cento é certeza de momento Dm Noventa e nove é arrependimento
A9 Vai, vai E Bm7 Vai deixando a nossa vez passar D Vai, vai A9 Deixando mesmo acabar E Vai se preparando Bm7 Aí pro teste da mãozinha A/C# Chora não D Quando ver outra mão De mão dada com a minha A9 Vai, vai E Bm7 Vai deixando a nossa vez passar D Vai, vai A9 Deixando mesmo acabar E Vai se preparando Bm7 Aí pro teste da mãozinha A/C# Chora não D Quando ver outra mão De mão dada com a minha
Solo: A9 E Bm7 D
E|------------------------------------------| 
B|------------------------------------------| 
G|-7/9-4/6-6--4h6-4h6--6/7-6-4-2-2----------| 
D|------------------------------------------| 
A|------------------------------------------| 
E|------------------------------------------| 

E|------------------------------------------| 
B|------------------------------------------| 
G|-7/9--4h6-4h6--6/7-6-4-2------------------| 
D|-------------------------2/4--------------| 
A|------------------------------------------| 
E|------------------------------------------| 
Primeira Parte F#m C#m7 Você não pensou D Só terminou Nem abriu os seus olhos E F#m Pra ver quem fui eu nesse tempo C#m7 Um ano e acabou D Bom enquanto durou É a desculpa Pré-Refrão F#m De quem é desprovido de sentimento E D Um por cento é certeza de momento Dm Noventa e nove é arrependimento
A9 Vai, vai E Bm7 Vai deixando a nossa vez passar D Vai, vai A9 Deixando mesmo acabar E Vai se preparando Bm7 Aí pro teste da mãozinha A/C# Chora não D Quando ver outra mão De mão dada com a minha A9 Vai, vai E Bm7 Vai deixando a nossa vez passar D Vai, vai A9 Deixando mesmo acabar E Vai se preparando Bm7 Aí pro teste da mãozinha A/C# Chora não D Quando ver outra mão De mão dada com a minha
Solo: A9 E Bm7
E|------------------------------------------| 
B|------------------------------------------| 
G|-7/9-4/6-6--4h6-4h6--6/7-6-4-2-2--7/9-----| 
D|------------------------------------------| 
A|------------------------------------------| 
E|------------------------------------------| 
D A9 Vai deixando mesmo acabar E Vai se preparando Bm7 Aí pro teste da mãozinha A/C# Chora não D Quando ver outra mão De mão dada com a minha Final: A9 E Bm7 D A9
E|------------------------------------------| 
B|------------------------------------------| 
G|-7/9-4/6-6--4h6-4h6--6/7-6-4-2-2----------| 
D|------------------------------------------| 
A|------------------------------------------| 
E|------------------------------------------| 

Compartilhe esta música: novo

QR Code
Copiar