Rua Recaída

Henrique e Juliano

Tom: Dm
Intro Dm  C  Gm  Bb 

Primeira Parte 
              Dm 
Um bar pra beber 
     C 
O caminho mais curto 
                      Gm                
Eu pago dobrado a corrida 
       Bb 
Aí aí aí 
         Dm 
Pode correr 
     C                      
O boteco é melhor que hospital 
              Gm 
Em caso de ferida 
                 Bb 
Paixão mal resolvida 

Segunda Parte 

          Dm 
Deixa marcado aí 
          C 
Tipo umas onze 
      Gm 
Você volta me busca e me leva 
         Bb 
Onde eu fui feliz até ontem 

F Toca pra Rua Recaída Lote 12, casa 30 C Portão verde, muro cinza Foi ali que a gente beijou Dm E eu vi ela beijando outro Bem mais intenso Bb Com cenas que a gente só vê depois de um mês e pouco F Toca pra Rua Recaída Lote 12, casa 30 C Portão verde, muro cinza Foi ali que a gente beijou Dm E eu vi ela beijando outro Bem mais intenso Bb Com cenas que a gente só vê depois de um mês e pouco
Solo Dm Bb Dm Bb Gm Bb F C
   Dm                      Bb 
E|----------------------------------------------------| 
B|----------13-13-13b15-------------13-13-10----------| 
G|-------10----------------------10-------------------| 
D|-10h12-------------------10h12----------------------| 
A|----------------------------------------------------| 
E|----------------------------------------------------| 

   Dm                         Bb 
E|----------------------------------------------------| 
B|----------13-13/15-10-------------------------------| 
G|-------10-------------12-12/14--12/14/12p10-12---10-| 
D|-10h12-----------------------------------------12---| 
A|----------------------------------------------------| 
E|----------------------------------------------------| 

   Gm                Bb                 F 
E|----------------------------------------------------| 
B|-10h11-10-----------------------------10-11-13-13---| 
G|-------------10-12----------------------------------| 
D|----------12-------7-8-7-5--7-8-7-10----------------| 
A|----------------------------------------------------| 
E|----------------------------------------------------| 
            C 
E|----------------------------------------------------| 
B|-11-10-------13-13----------------------------------| 
G|-------12-10----------------------------------------| 
D|----------------------------------------------------| 
A|----------------------------------------------------| 
E|----------------------------------------------------| 
Segunda Parte Dm Deixa marcado aí C Tipo umas onze Gm Você volta me busca e me leva Bb Onde eu fui feliz até ontem
F Toca pra Rua Recaída Lote 12, casa 30 C Portão verde, muro cinza Foi ali que a gente beijou Dm E eu vi ela beijando outro Bem mais intenso Bb Com cenas que a gente só vê depois de um mês e pouco F Toca pra Rua Recaída Lote 12, casa 30 C Portão verde, muro cinza Foi ali que a gente beijou Dm E eu vi ela beijando outro Bem mais intenso Bb Com cenas que a gente só vê depois de um mês e pouco F Toca pra Rua Recaída

Compartilhe esta música: novo

QR Code
Copiar