Recaídas

Henrique e Juliano

Tom: G
Solo Intro:   
e|------------------------------------------------|  
B|-4/8--7-8~-----------1--------------------------|  
G|-------------------0----2/4---------------------|  
D|---------------0h2-------------------- ---------|  
A|------------------------------------------------|  
E|------------------------------------------------|
Intro: G G Você pode, ficar com quem você quiser Em7 Não tem nada a ver C9 Eu não mando em você Am7 Mais ainda choro D E quando alguém comenta não quero saber G Me preocupo
    
e|-------------
B|-8-/10/-8----  
G|-7/-9/-7----- 
D|-------------
A|-------------
E|------------- 
G Em7 E apesar dos pesares eu sempre quero te ver bem C9 E ainda vou além Am7 Em uma relação sei que não vai ser fácil D Amar outro alguém
 
e|----------------                    
B|----------------
G|---7-9-9/11----- 
D|-9-------------- 
A|----------------
E|----------------
G E hoje, mesmo separados sinto D que seu corpo ainda é meu As vezes me escondo Am E faço de tudo pra ninguém notar que eu C9 Vivo e morro por ti Am D Tem semanas que as vezes sofro vem as recaídas
  
e|---------------------------                                                   
B|-----------8~10/12--------- 
G|----7-9/11----------------- 
D|7-9------------------------
A|---------------------------
E|--------------------------- 
G As vezes eu queria ter o poder D De poder te apagar da memória E nessa fraqueza ter força pra fazer Am C9 Com que essa nossa história, não passe D G D De passado e fique da porta pra fora
 
e|--------------------------------------                         
B|---------------1/6/1------------------                       
G|-----------2-4------------------------                              
D|-0-1-4-4/5---------------------------- 
A|--------------------------------------
E|-------------------------------------- 
G D Se eu pudesse te apagar da minha mente Am C9 Apagaria agora (Riff) G D Mas toda vez que eu me lembro de nós dois Am C9 Meu coração sempre chora G D Am C9 E é sempre a mesma história aaa aaa
Riff                      
e|------------------------------
B|-------8~~-8/10/8-------------                      
G|---7-9------------------------ 
D|-9----------------------------
A|------------------------------
E|------------------------------ 
Solo:  

e|----------------------------------------------------|  
B|----------------------------------------------------|  
G|---------------7/9~---------------------------------|  
D|--------7-9-10--------------------------------------|  
A|-7-9-10---------------------------------------------|  
E|----------------------------------------------------|  


e|----------------------------------------------------|  
B|-6/8-7-8~---12-12\10-10-10\8--8-8--7-7--7h8--8~-----|  
G|----------------------------------------------------|  
D|----------------------------------------------------|  
A|----------------------------------------------------|  
E|----------------------------------------------------|  



e|----------------------------------------------------|  
B|-10/12-12\10--10-10\8--8-8--7-7--7-8----------------|  
G|-------------------------------------7/9~-----------|  
D|----------------------------------------------------|  
A|----------------------------------------------------|  
E|----------------------------------------------------|  




e|-8-8-8--7-7-7---------------------------------------|  
B|--------------10-10-10--8-8--8h10--10~--------------|  
G|----------------------------------------------------|  
D|----------------------------------------------------|  
A|----------------------------------------------------|  
E|----------------------------------------------------|  



e|----------------------------------------------------|  
B|-7-8p7-------7-8-10/12~-----------------------------|  
G|-------9-7-9----------------------------------------|  
D|----------------------------------------------------|  
A|----------------------------------------------------|  
E|----------------------------------------------------|  
Base do Solo: G Em7 C9 Am D G E hoje, mesmo separados sinto D que seu corpo ainda é meu - As vezes me escondo Am E faço de tudo pra ninguém notar que eu C9 Vivo e morro por ti Am D Tem semanas que as vezes sofro vem as recaídas
 
e|---------------------------
B|-----------8~10/12---------  
G|----7-9/11-----------------  
D|7-9------------------------ 
A|---------------------------
E|--------------------------- 
G As vezes eu queria ter o poder D De poder te apagar da memória E nessa fraqueza ter força pra fazer Am C9 Com que essa nossa história, não passe D G D De passado e fique da porta pra fora
                  
e|--------------------------------------
B|---------------1/6/1------------------                          
G|-----------2-4------------------------ 
D|-0-1-4-4/5---------------------------- 
A|--------------------------------------
E|-------------------------------------- 
G D Se eu pudesse te apagar da minha mente Am C9 Apagaria agora (Riff) G D Mas toda vez que eu me lembro de nós dois Am C9 Meu coração sempre chora G D Am C9 E é sempre a mesma história aaa aaa
Riff                      
e|------------------------------
B|-------8~~-8/10/8-------------                     
G|---7-9------------------------ 
D|-9---------------------------- 
A|------------------------------
E|------------------------------ 
Solo Final:  
e|----------------------------------------------------|  
B|----------------------------------------------------|  
G|---------------7/9~---------------------------------|  
D|--------7-9-10--------------------------------------|  
A|-7-9-10---------------------------------------------|  
E|----------------------------------------------------|  

  
e|----------------------------------------------------|  
B|-4/8--7-8~---------- 1------------------------------|  
G|-----------------  0----2/4-------------------------|  
D|---------------0h2----------------------------------|  
A|----------------------------------------------------|  
E|----------------------------------------------------| 

Compartilhe esta música: novo

QR Code
Copiar