Nasci Pra Te Amar

Henrique e Juliano

Tom: Bm
Solo: 
E|--------------------------|-----------------------------| 
B|--------------------------|----3-5----3-5----3-5----3-5-| 
G|---2-4---2-4----2-4----2-4|--2------2------2------2-----| 
D|-4-----4------4------4----|-----------------------------| 
A|--------------------------|-----------------------------| 
E|--------------------------|-----------------------------| 

E|--------------------------|------------------------------| 
B|--------------------------|---------------------------0-2| 
G|---2-4---2-4---2-4---2-4--|-4-2-1-2-2/4-1-------0-4-2----| 
D|-4-----4-----4-----4------|---------------2-4-5----------| 
A|--------------------------|------------------------------| 
E|--------------------------|------------------------------|
Bm G Eu nunca fui de escrever cartas nem mandar flores D Eu que na minha vida já tive na minha vida milhões de amores A É a primeira vez que eu não sinto meus pés no chão Bm G Fiquei perdido quando vi seu olhar no meu D Quase que fiquei louco querendo um beijo seu A Senti dentro do peito, bater forte o coração Bm Mas era cedo, G Pra me declarar D Fiquei com medo, A De você duvidar D Bm No outro dia tive a sorte e te encontei de novo Falei desse amor que é lindo, G A G A Mas é perigoso quando se ama alguém que não quer se apaixonar D Bm Mas e você sorriu e o medo desapareceu G Notei que o amor da sua vida era eu A Então te dei um beijo e fiz você acreditar G A Bm Que eu nasci pra te amar Bm Mas era cedo, G Pra me declarar D Fiquei com medo, A G A De você duvidar D Bm No outro dia tive a sorte e te encontei de novo Falei desse amor que é lindo, G A G A Mas é perigoso quando se ama alguém que não quer se apaixonar D Bm Mas vi você sorrindo e o medo desapareceu G Notei que o amor da sua vida era eu A Então te dei um beijo e fiz você acreditar G A Bm Que eu nasci pra te amar

Compartilhe esta música: novo

QR Code
Copiar