Desbeijar Minha Boca

Henrique e Juliano

Tom: C#m
Intro C#m  A  E  B9 

Primeira Parte 

E 
  Não vai se livrar de mim tão fácil 
A 
  Ralei tanto pra te merecer 
C#m                                 B 
   O trabalho que me deu pra te ganhar 
                           A13  A  A11+  A 
Eu vou te dar pra me esquecer 

Cê vai ver 

Pré-Refrão 

       C#m7 
Pode trocar de balada pra gente não se topar 
       E 
Pode até trocar de número, me bloquear 
 A9   
Muda de casa, muda de vida pra não me ver 
       B9 
Mas você jamais vai poder 

C#m7 Desbeijar minha boca A9 Destirar a roupa E B9 Desdeitar na cama, me desabraçar C#m7 Desbeijar minha boca A9 Destirar a roupa E B9 Desdeitar na cama ou me desamar C#m7 A9 Eu quero ver me desamar E B9 Eu quero ver me desamar Eu quero ver me desamar
Solo C#m7 A9 E B9 C#m7 A9 E B9
E|------------------------------------------| 
B|-5-4h5p4----5-5-4-5-4---------------------| 
G|---------6------------6-------------------| 
D|------------------------7-----------------| 
A|------------------------------------------| 
E|------------------------------------------| 
E|------------------------------------------| 
B|------------------------------------------| 
G|---------6--------------------------------| 
D|-7/9-9-9---9-9-6-6-7/9-9------------------| 
A|------------------------------------------| 
E|------------------------------------------| 
E|------------------------------------------| 
B|---5-4-5-4-----5-4-5-4--------------------| 
G|-----------6-----------6------------------| 
D|-6-----------6-----------7----------------| 
A|------------------------------------------| 
E|------------------------------------------| 
E|------------------------------------------| 
B|------------------------------------------| 
G|---------6--------------------------------| 
D|-7/9-9-9---9-9-6-6-7/9-9------------------| 
A|------------------------------------------| 
E|------------------------------------------| 
Pré-Refrão C#m7 Pode trocar de balada pra gente não se topar E Pode até trocar de número, me bloquear A9 Muda de casa, muda de vida pra não me ver B9 Mas você jamais vai poder
C#m7 Desbeijar minha boca A9 Destirar a roupa E B9 Desdeitar na cama, me desabraçar C#m7 Desbeijar minha boca A9 Destirar a roupa E B9 Desdeitar na cama ou me desamar C#m7 A9 Eu quero ver me desamar E B9 Eu quero ver me desamar Eu quero ver me desamar
Solo C#m7 A9 E B9
E|------------------------------------------| 
B|-5-4h5p4----5-5-4-5-4---------------------| 
G|---------6------------6-------------------| 
D|------------------------7-----------------| 
A|------------------------------------------| 
E|------------------------------------------| 
E|------------------------------------------| 
B|------------------------------------------| 
G|---------6--------------------------------| 
D|-7/9-9-9---9-9-6-6-7/9-9------------------| 
A|------------------------------------------| 
E|------------------------------------------| 
C#m7 Desbeijar minha boca A9 Destirar a roupa E B9 Desdeitar na cama me desamar C#m7 Desbeijar minha boca A9 Destirar a roupa E B9 Desdeitar na cama ou me desamar C#m7 A9 Eu quero ver me desamar E B9 Eu quero ver me desamar C#m Eu quero ver me desamar

Compartilhe esta música: novo

QR Code
Copiar