Cuida Bem DelaCifra Verificada

Henrique e Juliano

Tom: C
Intro: Am C G D 

e|----------0-----------------------0---------------------3-------| 
B|-----1----------1-----------1-----------1----------3--------3---| 
G|---0---0-----0-----0-----0-----0-----0-----0-----0---0----0---0-| 
D|----------------------------------------------------------------| 
A|-0--------------------3-----------------------------------------| 
E|----------------------------------------------3-----------------| 

e|---------------2------------------------0----------| 
B|---------3-----------3------------1-----------1----| 
G|------2-----2-----2-----2------0-----0-----0-----0-| 
D|--0------------------------------------------------| 
A|----------------------------0----------------------| 
E|---------------------------------------------------| 

e|------------------------------------------2-| 
B|-------8-10-8h10-8-----8-10-8h10-8--------3-| 
G|--7/9--------------7/9-------------7------2-| 
D|--------------------------------------5---0-| 
A|--------------------------------------------| 
E|--------------------------------------------| 
Am7 Sabe aquela menina sentada ali C G Com olhar desconfiado tão inocente D Eu já fui doente naquela mulher Am7 C Eu sei que agora ela deve ta olhando de lado G Tão sem graça vendo o presente e o passado D Conversando de um assunto ela já sabe qual é Am7 C Esse é meu único aviso, se ela quis ficar contigo C G Faça ela feliz, faça ela feliz
Solo: 
e|--8--8--10--8--10--8--10--8--10--12--13--12--13--12--13--12--13---| 
B|------------------------------------------------------------------| 
G|--5--5--7---5--7---5--7---5--7---9---10--9---10--9---10--9---10---| 
D|------------------------------------------------------------------| 
A|------------------------------------------------------------------| 
E|------------------------------------------------------------------| 

e|--15--17--15--17--15\----| 
B|-------------------------| 
G|--12--14--12--14--12\----| 
D|-------------------------| 
A|-------------------------| 
E|-------------------------| 

Riff: 

e|----------------------------| 
B|-----10-----8---------------| 
G|--9------9-----8\7--5-------| 
D|-----------------------7~~~-| 
A|----------------------------| 
E|----------------------------| 
Am7 Cuida bem dela C Você não vai conhecer alguém melhor que ela G Promete pra mim D O que você jurar pra ela você vai cumprir Am7 C Cuida bem dela ela gosta que reparem no cabelo dela G Foi por um triz Mas fui incapaz de ser D O que ela sempre quis Am7 C G Faça ela feliz
Riff Final: 

e|----------------| 
B|-------5--------| 
G|--5----5---5----| 
D|--5h7------5h7--| 
A|----------------| 
E|----------------| 
   

Compartilhe esta música: novo

QR Code
Copiar