Conta Pra Que

Henrique e Juliano

Tom: Am
Am  F  C  G 

Intro parte 1 de 4 

 
            Am 
E|-0----------------------------------------| 
B|---3----1---------------------------------| 
G|-----5--2---------------------------------| 
D|--------2---------------------------------| 
A|------------------------------------------| 
E|------------------------------------------| 


Intro parte 2 de 4 


            F 
E|-0------1---------------------------------| 
B|---3----1---------------------------------| 
G|-----5--2---------------------------------| 
D|--------3---------------------------------| 
A|--------3---------------------------------| 
E|--------1---------------------------------| 
 

Intro parte 3 de 4 

 
            C 
E|-0------0---------------------------------| 
B|---3----1---------------------------------| 
G|-----5--0---------------------------------| 
D|--------2---------------------------------| 
A|--------3---------------------------------| 
E|------------------------------------------| 
 

Intro parte 4 de 4 

 
            G 
E|-0------3---------------------------------| 
B|---3----3---------------------------------| 
G|-----4--0---------------------------------| 
D|--------0---------------------------------| 
A|--------2---------------------------------| 
E|--------3---------------------------------| 
Am Deixa do jeito que tá F Por mim ta tudo bem C Mas deixa eu te perguntar G Ta bom pra você também? Am Se a gente acredita F Tudo conspira a favor C Pra tudo tem seu tempo e esse é nosso tempo G A escolha é sua F G Mas pensando bem, eu vou falar Am Contar pra quê? Ninguém precisa entender F Que quando a cidade dorme A gente sai pra se ver C E ali de baixo das luzes Nos muros, escrevo G Meu nome, seu nome Pro mundo saber Am Contar pra quê?
 
E|------------------------------------------------------| 
B|------------------------------------------------------| 
G|-7h9---5-5------7h9---5-5------7h9---5-5---7h9---5-5/7| 
D|------------------------------------------------------| 
A|------------------------------------------------------| 
E|------------------------------------------------------|

Compartilhe esta música: novo

QR Code
Copiar