Cê Vai Mas Volta (part. Mano Walter)

Henrique e Juliano

Tom: G
Intro: G  D  Em  C 

E|------------------------------------| 
B|---3-0----------3-0---0h1-0---------| 
G|-0-----0-0h2--0-----0-------2-------| 
D|------------------------------4-5~--| 
A|------------------------------------| 
E|------------------------------------|
G Tá tudo arrumado D Seu coração fez revisão Em C Sorriso retocado deu bye bye pra solidão Em Mas ta não D Cê diz que ta feliz C Mas ta não Am C E quer saber se eu te conheço bem G Vai lembrar do meu beijo D Mesmo provando outros cem Am C Talvez isso dê pra provar G Que sem mim não dá D Que sem mim não dá G D Largou mas ainda gosta Em C Acabou mas ainda chora G D E não importa quantas bocas cê beijar lá fora Em Cê vai mas volta C Cê vai mas volta G D Largou mas ainda gosta Em C Acabou mas ainda chora G D E não importa quantas bocas cê beijar lá fora Em Cê vai mas volta C Cê vai mas volta Solo G D Em C G D Em C
E|-----------------------------------| 
B|---3-0-1-0-1-0------3-0-1-0-1-0----| 
G|-0-------------2--0-------------0--| 
D|-----------------------------------| 
A|-----------------------------------| 
E|-----------------------------------| 

E|------------------------------------| 
B|---3-0----------3-0---0h1-0---------| 
G|-0-----0-0h2--0-----0-------2-------| 
D|------------------------------4-5~--| 
A|------------------------------------| 
E|------------------------------------|
G Tá tudo arrumado D Seu coração fez revisão Em C Sorriso retocado deu bye bye pra solidão Em Mas ta não D Cê diz que ta feliz C Mas ta não Am C E quer saber se eu te conheço bem G Vai lembrar do meu beijo D Mesmo provando outros cem Am C Talvez isso dê pra provar G Que sem mim não dá D Que sem mim não dá G D Largou mas ainda gosta Em C Acabou mas ainda chora G D E não importa quantas bocas cê beijar lá fora Em Cê vai mas volta C Cê vai mas volta G D Largou mas ainda gosta Em C Acabou mas ainda chora G D E não importa quantas bocas cê beijar lá fora Em Cê vai mas volta C Cê vai mas volta ( G D Em C G )

Compartilhe esta música: novo

QR Code
Copiar