Até Você VoltarCifra Verificada

Henrique e Juliano

Tom: Bb
Intro: Bb Eb  


E|--------------------------------------------|  
B|--------------------------------------------|  
G|---8/10-10-10-10-10-10-10p8-7---------------|  
D|------------------------------10-8-8/10-8~--|  
A|--------------------------------------------|  
E|--------------------------------------------| 
Bb F/A Aqui sentado nessa mesa, só o copo de cerveja é minha companhia Gm Eb9 E essa casa está tão cheia e parece vazia sem você comigo Bb F/A E hoje está fazendo um ano, aqui no meu calendário ainda está marcando o dia e o mês Gm Eb9 Foi à primeira vez e o que me prometeu será que se esqueceu Gm Dm De todos nossos planos, nossos filhos, nosso apartamento Cm Da nossa lua de mel, do nosso casamento Eb9 Como pude acreditar nesse seu juramento Ebm E agora estou sozinho outra vez
Bb F De copo sempre cheio, coração vazio Gm To me tornando um cara solitário e frio Eb9 F Vai ser difícil eu me apaixonar de novo e a culpa é sua Bb F Antes embriagado do que iludido Gm Acreditar no amor já não faz mais sentido Eb9 F Eu vou continuar nessa vida bandida até você voltar
(Bb F Cm Eb9 F)  


E|---------------------------------------------------|  
B|---------------------------------------------------|  
G|---8/10-10-10-10-10-10-10p8-7----------------------|  
D|------------------------------10-8-8/10------------|  
A|---------------------------------------------------|  
E|---------------------------------------------------|  



E|---------------------------------------------------|  
B|-----------------------11-11p10--------------------|  
G|---8/10-10-10-10-12-10----------12-10-10/12--------|  
D|---------------------------------------------------|  
A|---------------------------------------------------|  
E|---------------------------------------------------|  



E|---------------------------------------------------|  
B|---------------------------------------------------|  
G|---14-14-14--12--10--12--12-12-12--10--9-- 7-------|  
D|---15-15-15--13--11--13--13-13-13--11--10--8-------|  
A|---------------------------------------------------|  
E|---------------------------------------------------|  



E|---------------------------------------------------|  
B|---------------------------------------------------|  
G|---------------------------------------------------|  
D|----8-8-10-8-8/12-10-8-7/8-8-----------------------|  
A|---------------------------------------------------|  
E|---------------------------------------------------|  
Gm Dm De todos nossos planos, nossos filhos, nosso apartamento Cm Da nossa lua de mel, o nosso casamento Eb9 Como pude acreditar nesse seu juramento Ebm E agora estou sozinho outra vez
Bb F De copo sempre cheio, coração vazio Gm To me tornando um cara solitário e frio Eb9 F Vai ser difícil eu me apaixonar de novo e a culpa é sua Bb F Antes embriagado do que iludido Gm Acreditar no amor já não faz mais sentido Eb9 F Eu vou continuar nessa vida bandida até você voltar(2x)
Final Bb F Cm Eb9 F Bb Até você voltar

Compartilhe esta música: novo

QR Code
Copiar