Evidências

Hardneja Sertacore

Tom: A
HARDNEJA SERTACORE – EVIDÊNCIAS 
e|-----------------------9-9-7-7------------------------| 
B|-9--9-7-9-9/10-9(2X)-------------10-10-9-9-7~9--------| 
G|------------------------------------------------------| 

e|------------------------------9-9-7-7------------------------------------------| 
B|9-7-9-9/10-9-9-7-9-9/10-10/12---------10-10-9-9-7-9-9-9-9-9-9-9-12-12-12-12-12-| 
G|-------------------------------------------------------------------------------| 

e|-------------------------------------------------------------------- 
B|------------------------------------------------------------------- 
G|-----------------------------------------------------------9-9-13-13-| 
D|-9-9-9----------------------9-9-9---------------6-6-6-6----x-x--x-x--| 
A|-7-7-7----------------------6-6-6---------------4-4-4-4----7-7-11-11-| 
E|---------------------------------------------------------------------|
Quando eu digo que deixei te amar é porque eu te amo A C# F# Quando eu digo que não quero mais você, é porque eu te quero (G# A) B G#(RIFF) C# A F# Eu tenho medo de te dar meu coração e confessar que ainda estou em tuas mãos, mas não posso B imaginar o que vai ser de mim se eu te perder um dia. RIFF e|-------------------------------| B|-------------------------------| G|-13-14-13-11-9-8-9-8-9-11-8-11-| D|--x--x--x--x-x-x-x-x-x--x-x-x--| A|-11-12-11--9-7-6-7-6-7--9-6-9--| E|-------------------------------| E B C# B E Eu me afasto e me defendo de você, mas depois me entrego E C# F# Faça tipo, falo coisas que eu não sou,Mas depois eu nego B G# Mas a verdade é que eu sou louco por você C# A E tenho medo de pensar em te perder E B Eu preciso aceitar que não dá mais A para separar as nossas vidas E (RIFF1) G# E nessa loucura de dizer que não te quero vou negando as aparências, (RIFF2) A F# disfarçando as evidências mas para que viver fingindo se eu não posso enganar meu coração eu sei que te amo E (RIFF1) G# Chega de mentiras de negar meu desejo eu te quero mais do que tudo, eu (RIFF2) A F# preciso do teu beijos eu entrego a minha vida pra você fazer o que quiser de mim só quero ouvir você dizer que sim
RIFF1			RIFF2 
G|-11-9-8-|     G|-13-11-9-| 
D|-x--x-x-|     D|--x-x--x-| 
A|-9--7-6-|     A|-11-9--7-| 
E|--------|     E|---------| 








G|------9-| (4X)   G|------9---------------| 
D|-2-2--x-|        D|------x---------------| 
A|-2-2--7-|        A|-7-7--7---7-7---------| 
E|--------|        E|-5-5------5-5---5-4-3-| 
Diz que é verdade, que tem saudade 
     F# 
Que ainda você pensa muito em mim 
G|------9-| (4X)   G|------9---------------| 
D|-2-2--x-|        D|------x---------------| 
A|-2-2--7-|        A|-7-7--7---7-7---------| 
E|--------|        E|-5-5------5-5---5-4-3-| 
Diz que é verdade, que tem saudade, 
     F#                         E 
Que ainda você quer viver pra mim 
e|--------------------------| 
B|--------------------------| 
G|--------------------------| 
D|-----------6~----------7~-|8x 
A|-7-7-7-7-7---7-7-7-7-7----| 
E|--------------------------| 

e|-----------------------------------------------------------------------------| 
B|-------9---------10-------9---------10------9---------10-------9---------10--| 
G|-------8---------9--------8---------9-------8---------9--------8---------9---| 
D|-6-6-6-6-6-6-6-6-7--4-4-4-6-4-4-4-4-7-------6---------7--------6---------7---| 
A|-4-4-4---4-4-4-4----2-2-2---2-2-2-2---7-7-7---7-7-7-7----4-4-4---4-4-4-4-----| 
E|--------------------------------------5-5-5---5-5-5-5----2-2-2---2-2-2-2-----| 

e|-------------------------------------------------------------| 
B|-------------------------------------------------------------| 
G|-6-6-6-6--8-8-8-8--9-9-9-9--6-6-6-6--9-10-12-----------------| 
D|-x-x-x-x--x-x-x-x--x-x-x-x--x-x-x-x--x--x--x-----------------| 
A|-4-4-4-4--6-6-6-6--7-7-7-7--4-4-4-4--7--9-10--6-----6--6--6--| 
E|----------------------------------------------4-----4--4--4--|
E G# A Diz que é verdade, que tem saudade F# Que ainda você pensa muito em mim E G# A Diz que é verdade, que tem saudade F# B Que ainda você quer viver pra mim
G|------9-| (4X)   G|------9---------------| 
D|-2-2--x-|        D|------x---------------| 
A|-2-2--7-|        A|-7-7--7---7-7---------| 
E|--------|        E|-5-5------5-5---5-4-3-|
F# Que ainda você pensa muito em mim F# E Que ainda você quer viver pra mim

Compartilhe esta música: novo

QR Code
Copiar