Café E AmorCifra Verificada

Gusttavo Lima

Tom: Am
Intro: F  C  Em7  G 

e|------------------------------------------------------------|
B|------------------------------------------------------------|
G|--------------0p2---0p2-----0-------------------------------|
D|----0--2-----------------3-----0p2--3/5--3--2---------------|
A|-3--------3-------------------------------------5--5/7------|
E|------------------------------------------------------------|

e|------------------------------------------------------------|
B|------------------------------------------------------------|
G|----------------------1/8--8~-------------------------------|
D|-3/5--3--2-------0------------------------------------------|
A|------------5/7---------------------------------------------|
E|------------------------------------------------------------|

Verso 1:

F9 Não vou te obrigar C A ficar aqui Em7 Tá ruim pra você Am7 E não tá bom pra mim

Pré-Refrão

F9 Já percebeu G Que quando cê sorri o motivo não é mais eu Em7 Que quando eu tô feliz é porque meu time venceu Am7 Ou coisa parecida não tem nada a ver com a nossa vida
F9 Melhor terminar C Cada um por si Em7 Um ponto final Am7 Às vezes é um começo e não o fim F9 Melhor terminar C Não tem mais arrepio Em7 Café e amor são duas coisas Am7 Que não servem frio (2x)
Solo: F C Em7 G

Pré-Refrão

F9 Já percebeu G Que quando cê sorri o motivo não é mais eu Em7 Que quando eu tô feliz é porque meu time venceu Am7 Ou coisa parecida não tem nada a ver com a nossa vida
F9 Melhor terminar C Cada um por si Em7 Um ponto final Am7 Às vezes é um começo e não o fim F9 Melhor terminar C Não tem mais arrepio Em7 Café e amor são duas coisas Am7 Que não servem frio (2x)
Final: F C Em7 Am7

Compartilhe esta música: novo

QR Code
Copiar