Sweet Child O' MineCifra Verificada

Guns N' Roses

Tom: D
Tuning: Eb Ab Db Gb Bb eb 

Intro: D C G D 


 
(Intro - Guitar 1)

e|-------------15----14------| 
B|----15---------------------| 
G|-------14-12----14----14---| 
D|-12------------------------| 
A|---------------------------| 
E|---------------------------| (4x) 



e|-------------15----14------| 
B|----15---------------------| 
G|-------14-12----14----14---| 
D|-14------------------------| 
A|---------------------------| 
E|---------------------------| (2x)



e|-------------15----14------| 
B|----15---------------------| 
G|-12----14-12----14----14---| 
D|---------------------------| 
A|---------------------------| 
E|---------------------------| (2x)


 

e|-12----------12----14------| 
B|-------15------------------| 
G|----14----14----14----14---| 
D|---------------------------| 
A|---------------------------| 
E|---------------------------| 

e|-15---14----12-------------| 
B|------------------15~------| 
G|---14---14----14--14~------| 
D|---------------------------| 
A|---------------------------| 
E|---------------------------| 


(Intro - Guitar 2) 

   D         C              G 
e|-2--3p2----0---0----------3---3----------| 
B|-3------3--1---1-3p1---1--3---3----------| 
G|-2------2--0-0-0-----0----0-0-0----------| 
D|-0---------2-2-2----------0-0-0----------| 
A|-----------3-3------------2-2-2----------| 
E|--------------------------3-3-3----------| 

e|-2-2-2-2-2-2-2-2-3p2---2-----------------| 
B|-3-3-3-3-3-3-3-3-----3-3-----------------| 
G|-2-2-2-2-2-2-2-2-----2-2-----------------| 
D|-0-0-0-0-0-0-0-0-------0-----------------| 
A|-----------------------------------------| 
E|-----------------------------------------| 
D She's got a smile that it seems to me C Reminds me of childhood memories G Where everything was as fresh D As the bright blue sky D Now and then when I see her face C She takes me away to that special place G And if I stare too long D I'd probably break down and cry
A5 B5 C5 A5 D5 Ohh! Oooohh! Sweet child o' mine A5 B5 C5 A5 D5 Ohh! Oooohh! Sweet love of' mine
D She's got eyes of the bluest skies C As if they thought of rain G I hate to look into those eyes D And see an ounce of pain D Her hair reminds me of a warm safe place C Where as a child I'd hide G And pray for the thunder and the rain D To quietly pass me by
A5 B5 C5 A5 D5 Ohh! Oooohh! Sweet child o' mine A5 B5 C5 A5 D5 Ohh! Oooohh! Sweet love of' mine A5 B5 C5 A5 D5 Ohh! Oooohh! Sweet child o' mine A5 B5 C5 A5 D5 D#5 Uhh! Uuuuhh! Sweet love of' mine
Em C B7 Am

Compartilhe esta música: novo

QR Code
Copiar