Merda De Situação

Guitardo

Tom: C#m
Intro: C#m  

(Guitarra clean com trêmolo) 

 
 C#5 
E|--------------------------|--------------------------| 
B|--------------------------|--------------------------| 
G|--6--6--------------------|--6--6--------------------| 
D|--------6--6--------------|--------6--6--------------| 
A|--------------4--4--4--4--|--------------4--4--4--4--| 
E|--------------------------|--------------------------| 
 

Entra toda a banda , e o ornamento prossegue com a guitarra suja (distorção) 
 C#5 
E|--------------------------|--------------------------| 
B|--------------------------|--------------------------| 
G|--6--6--------------------|--6--6--------------------|     
D|--------6--6--------------|--------6--6--------------| 
A|--------------4--4--4--4--|--------------4--4--4--4--| 
E|--------------------------|--------------------------| 

C#5 De uns tempos pra cá, A5 eu tenho andado meio preocupado. C#5 Sempre que eu volto pro meu bairro, A5 me sinto atordoado. C#5 A5 O medo de sair de casa continua a me afligir, C#5 A5 O medo de botar o nariz pra fora e o medo de sair C#5 A5 O medo de sair na rua e levar um tiro na nuca C#5 A5 O medo de sair na rua e levar um tiro na nuca C#5 A5 De uma bala perdida que me pega quando eu to voltando pra casa, ou, C#5 A5 quando eu tiver dentro do ônibus, qualquer bandido me ataca C#5 A5 Eu já não sei mais onde me esconder nessa perseguição, C#5 A5 Mas eu sei que é uma merda a minha situação PRIMEIRO SOLO C#5,A5,F#5,A5 - 3x) F#5 E agora ? A5 O que eu vou fazer ? C#5 F#5 Se um dia eu chegar em casa e a minha família morrer C#5 A5 Se um dia eu chegar em casa e ninguém sobreviver F#5 A5 Ao ataque e ao massacre, ao ataque e ao massacre C#5 A5 E a chacina que vai ocorrer, na minha casa, vão me atacar F#5 C#5 E pode ser até fobia , mas não da pra controlar A5 C#5 E a polícia não faz nada pela nossa situação A5 Pela nossa situação, F#5 Pela nossa situação, C#5 A5 que é uma merda, uma merda meu irmão. SEGUNDO SOLO (C#5 A5, F#5, A5 - 3x) C#5 A5 Outro dia, dois no meu bairro, foram pro saco F#5 C#5 E a minha vizinha se mudou e não sabe quando vai voltar A5 Pra esse inferno que se chama lar F#5 Pra esse inferno que se chama lar ÚLTIMO SOLO (C#5,A5,F#

Compartilhe esta música: novo

QR Code
Copiar