Meu Coração Deu Pt

Guilherme Souza

Tom: G#m
Intro G#m  E  F#  
        G#m  E  F#  G#m 



Solo 

E|-12-11------12-11------12-11------------------------| 
B|-------9-12-------9-12-------9-12----11---9---------| 
G|--------------------------------------------11-8----| 
D|----------------------------------------------------| 
A|----------------------------------------------------| 
E|----------------------------------------------------|
E|-12-11------12-11------12-11------------------------| 
B|-------9-12-------9-12-------9-12-11----------------| 
G|-------------------------------------11/13----------| 
D|----------------------------------------------------| 
A|----------------------------------------------------| 
E|----------------------------------------------------|

Verso 1:

E Pegar meu violão F# Um copo, uma cerveja G#m Um whisky e um cigarro E Eu não tô nada bem F# Vi minha ex beijando G#m Outro dentro do carro E Não sei por que me ligou F# Com saudade, chorando G#m Carente, implorando, querendo voltar E Eu não fiquei com ninguém F# Te esperando, confiei demais G#m Me enganei de novo, quebrei a cara

Pré-Refrão

E Mais uma vez, eu tomei porre por você F# Mais uma vez, o meu coração deu PT
B9 A culpa é sua F# Se eu tô aqui jogado no meio da rua Me deixa aqui sofrendo C#m Eu não quero ajuda E Eu fui tão inocente por acreditar F# Que ainda me amava B9 E agora fala F# Que droga de amor é esse que sentia C#m Ontem eu era o amor da sua vida E hoje eu sou o quê? E E hoje eu sou o quê? F# Hoje eu sou passado pra você
Solo G#m E F# G#m E F# G#m
E|-12-11------12-11------12-11------------------------| 
B|-------9-12-------9-12-------9-12----11---9---------| 
G|--------------------------------------------11-8----| 
D|----------------------------------------------------| 
A|----------------------------------------------------| 
E|----------------------------------------------------|
E|-12-11------12-11------12-11------------------------| 
B|-------9-12-------9-12-------9-12-11----------------| 
G|-------------------------------------11/13----------| 
D|----------------------------------------------------| 
A|----------------------------------------------------| 
E|----------------------------------------------------|

Verso 2:

E Pegar meu violão F# Um copo, uma cerveja G#m Um whisky e um cigarro E Eu não tô nada bem F# Vi minha ex beijando G#m Outro dentro do carro E Não sei por que me ligou F# Com saudade, chorando G#m Carente, implorando, querendo voltar E Eu não fiquei com ninguém F# Te esperando, confiei demais G#m Me enganei de novo, quebrei a cara

Pré-Refrão

E Mais uma vez, eu tomei porre por você F# Mais uma vez, o meu coração deu PT
B9 A culpa é sua F# Se eu tô aqui jogado no meio da rua Me deixa aqui sozinho C#m Eu não quero ajuda E Eu fui tão inocente por acreditar F# Que ainda me amava B9 E agora fala F# Que droga de amor é esse que sentia C#m Ontem eu era o amor da sua vida E hoje eu sou o quê? E E hoje eu sou o quê? F# Hoje eu sou passado pra você
Final G#m E F# G#m E F# G#m
                 G#m 
E|-------------4-------------------------------------| 
B|-------------4-------------------------------------| 
G|-------------4-------------------------------------| 
D|-------------6-------------------------------------| 
A|--7-6-4------6-------------------------------------| 
E|--------6-7--4-------------------------------------|
E|-12-11------12-11------12-11------------------------| 
B|-------9-12-------9-12-------9-12----11---9---------| 
G|--------------------------------------------11-8----| 
D|----------------------------------------------------| 
A|----------------------------------------------------| 
E|----------------------------------------------------|
E|-12-11------12-11------12-11-9----------------------| 
B|-------9-12-------9-12---------11-12-9--------------| 
G|----------------------------------------------------| 
D|----------------------------------------------------| 
A|----------------------------------------------------| 
E|----------------------------------------------------|

Compartilhe esta música: novo

QR Code
Copiar