4 Meses

Grupo RodaSamba

Tom: A
 
D|----------------------------------------------------| 
B|-2-3-2-3-2-3-2-3-2-3-2--------2-2-2-----------------| 
G|-----------------------4-2-4------------------------| 
D|----------------------------------------------------| 
A|----------------------------------------------------| 
E|----------------------------------------------------| 
 

 
D|-4~-2~-0~-------------------------------------------| 
B|----------2~--3-2-0---------------------------------| 
G|----------------------------------------------------| 
D|----------------------------------------------------| 
A|----------------------------------------------------| 
E|----------------------------------------------------| 
 

 
D|----------------------------------------------------| 
B|-2-3-2-3-2-3-2-3-2-3-2-------2-2-2------------------| 
G|-----------------------4-2-4------------------------| 
D|----------------------------------------------------| 
A|----------------------------------------------------| 
E|----------------------------------------------------| 
 

 
D|-4~-2~-0~-2~-3~---7-7-7-5-3-5-3-0-2-2--2-2-2--------| 
B|----------------------------------------------------| 
G|----------------------------------------------------| 
D|----------------------------------------------------| 
A|----------------------------------------------------| 
E|----------------------------------------------------| 
 
A Preste atenção meu bem no que vou te dizer E Esse é um desabafo de um só querer D/F# F#m Que está com o coração ferido e sufocado Bm E7/9 Por estar longe da razão de viver A Ainda me lembro bem como se fosse hoje E Linda, pura e meiga você me apareceu D/F# F#m Num sonho tão bela e vestida de branco Bm E7/9 E cabelo solto mais parecia um anjo mais não A É a mais perfeita obra de Deus E És a mais bela das flores do campo D/F# F#m Que como um passe de magia apareceu Bm E7/9 Do mesmo modo desapareceu A São quatro meses e o tempo demora E To com saudade e eu não vejo a hora D/F# F#m Olho no olho eu quero te dizer Bm E7/9 Que eu acordei do sonho e descobri
A Acordei e então eu descobri E Que sou um prisioneiro eterno do seu coração D/F# F#m Mas porém culpado pois eu sei não consegui Bm E7/9 Guiar o meu olhar para bem longe de ti

Compartilhe esta música: novo

QR Code
Copiar